Guitar Tabs for African Guitar Video Lesson And Tablature - Example 05

(/) Slide Up  (\) Slide Down  (h) Hammer On  (p) Pull Off  (b) Bend (r) Release (v) Vibrato (x) Muted

Tabs & Chords
BPM : 98.0
Check Track 2 for Chord Positions 

    E                          F#mA                 E                          F#m      D     
E|--------0-----0-----0--------------------0--------0-----0-----0-----0-----------------------
B|-----0-----------0-----------------------------------0-----------0--------------------------
G|-----------13----------13----14-14-13-11-------------------13----------13-13-------11-14-14-
D|--------------------------------------------13-13-------------------------------11----------
A|--------------------------------------------------------------------------------------------
E|--12-------------------------------------------------------------------------14-------------

                E                       F#m         D              E                       F#m
E|--------0-----0--0-----0--------0--------------------------0-----0-----------0-----0--------
B|--------------------------0--0--------------------------------------0--0--------0-----------
G|--14-11-------------13-------------13-11----11-14-14-13-11----------------13----------13-13-
D|-----------13----------------------------11-------------------13----------------------------
A|--------------------------------------------------------------------------------------------
E|--------------------------------------------------------------------------------------------

                      D     E                             F#m            E                    
E|-----------------------0--------------12-12-------12-------14----16----14----12-12----12-12-
B|-----------------------------------12----------12-------14----------------14-------12-------
G|-----14-14-11-14-14-11----------13----------13----------------------------------------------
D|--------------------------13----------------------------------------------------------------
A|--------------------------------------------------------------------------------------------
E|--------------------------------------------------------------------------------------------

                   F#m         E                                   F#m               E        
E|--------12-12----------14----14-12-12----12-12-12-------12-12----------14----------------12-
B|-----12-------------14----14----------12-------------12-------------14-------14-------12----
G|--13-------------14-------------------------------13-------------14----------------13-------
D|--------------------------------------------------------------------------------------------
A|--------------------------------------------------------------------------------------------
E|--------------------------------------------------------------------------------------------

                F#m               
E|--12-------12-------------14----
B|--------12-------------14----14-
G|-----13-------------14----------
D|--------------------------------
A|--------------0-----------------
E|-----------------14-------------

Guitar Tabs for African Guitar Video Lesson And Tablature - Example 05






    E                          F#mA                 E                          F#m      D     
E|--0--------------------------2--0-----------------0--------------------------2--------2-----
B|--0--------------------------2--2-----------------0--------------------------2--------3-----
G|--1--------------------------2--2-----------------1--------------------------2--------2-----
D|--2--------------------------4--2-----------------2--------------------------4--------0-----
A|--2--------------------------4--0-----------------2--------------------------4--------------
E|--0--------------------------2--------------------0--------------------------2--------------

                E                       F#m         D              E                       F#m
E|--------------0-----------------------2-----------2--------------0-----------------------2--
B|--------------0-----------------------2-----------3--------------0-----------------------2--
G|--------------1-----------------------2-----------2--------------1-----------------------2--
D|--------------2-----------------------4-----------0--------------2-----------------------4--
A|--------------2-----------------------4--------------------------2-----------------------4--
E|--------------0-----------------------2--------------------------0-----------------------2--

                      D     E                             F#m            E                    
E|--------------------2-----0-----------------------------2--------------0--------------------
B|--------------------3-----0-----------------------------2--------------0--------------------
G|--------------------2-----1-----------------------------2--------------1--------------------
D|--------------------0-----2-----------------------------4--------------2--------------------
A|--------------------------2-----------------------------4--------------2--------------------
E|--------------------------0-----------------------------2--------------0--------------------

                   F#m         E                                   F#m               E        
E|-----------------2-----------0-----------------------------------2-----------------0--------
B|-----------------2-----------0-----------------------------------2-----------------0--------
G|-----------------2-----------1-----------------------------------2-----------------1--------
D|-----------------4-----------2-----------------------------------4-----------------2--------
A|-----------------4-----------2-----------------------------------4-----------------2--------
E|-----------------2-----------0-----------------------------------2-----------------0--------

                F#m               
E|--------------2-----------------
B|--------------2-----------------
G|--------------2-----------------
D|--------------4-----------------
A|--------------4-----------------
E|--------------2-----------------

tabs and chords, guitar tabs, music transcription, music technology, deep learning, music information retrieval, transcribe into tabs & chords, chordify, music renditions, songsterr, reverbnation, tabulature, bollywood chords, ultimate guitar, yousician, guitar lessons, acoustic guitar, electric guitar, guitar tuner, 911 tabs