Guitar Tabs for Aerial M - Aass

(/) Slide Up  (\) Slide Down  (h) Hammer On  (p) Pull Off  (b) Bend (r) Release (v) Vibrato (x) Muted

Intro (x3)
D|-----------------------------------------------------------------------------------------
B|--10----------------------------------------------0--------------------------------------
F|--12----12----10-------10/8-----------7--------0--------------3-----------------------0--
D|--12-------9-----9-----------7-----7------5/7------------5/3--------------3-----3--2-----
A|--------------------------------------------------------------------5--3-----------------
D|-----------------------------------------------------------------------------------------

D|--------------------------------
B|--------------------------------
F|-----------0--------------------
D|--------3-----0---2h4--0---2/4--
A|-----1--------------------------
D|-----------------------------

Main Riff
D|--------------------
B|--------------------
F|--------5-----------
D|--5--7---------5p0--
A|-----------7--------
D|--------------------

Overdub @ 2:22

D|--------------------------------------------------------------------------------
B|--------------------------------------------------------------------------------
F|--------------------------------------------------------------------------------
D|--2--2--2--2--2--2--2--2-----5--4--5--4--5--4--5--4-----5--4--5--4--5--4--5--4--
A|--------------------------------------------------------------------------------
D|--------------------------------------------------------------------------------

D|--------------------------------------------------------------
B|--------------------------------------------------------------
F|--6--5-----------6--5-----------6--5-----------6--5-----------
D|--------5--4-----------5--4-----------5--4-----------5--4-----
A|--------------------------------------------------------------
D|--------------------------------------------------------------

D|--------------------------------------------------------------------------------
B|--------------------------------------------------------------------------------
F|--------------------------------------------------------------------------------
D|--5--4--5--4--5--4--5--4-----5--4--5--4--5--4--5--4-----5--4--5--4--5--4--5--4--
A|--------------------------------------------------------------------------------
D|--------------------------------------------------------------------------------

Overdub Riff #2 
Variation 1                 Variation 2
D|--------------0--------------------------
B|-----------------0-----------------7--5--
F|-----------0-----------------------------
D|--4---5/7-----------------4---5/7--------
A|-----------------------------------------
D|-----------------------------------------

Interjecting Part
D|-----------------------------
B|-----------3-----------3--3--
F|--5--5--5-----5--5--5--------
D|-----------------------------
A|-----------------------------
D|-----------------------------

Overdub Bass Riff
D|-----------------------
B|-----------------------
F|-----------------------
D|-----------------------
A|-----------------------
D|--0--0--5--0--0--5-----
tabs and chords, guitar tabs, music transcription, music technology, deep learning, music information retrieval, transcribe into tabs & chords, chordify, music renditions, songsterr, reverbnation, tabulature, bollywood chords, ultimate guitar, yousician, guitar lessons, acoustic guitar, electric guitar, guitar tuner, 911 tabs