Guitar Tabs for Adu Rayu

Adu Rayu - Yovie Widianto, Tulus, Glenn Fredly
BPM : 350

verse
    Bb                      D                         Gm                    Bb
E|--------------------------------------------------------------------------------------------------
B|-----------------1--3-----4--------3--------------1-----------------------------------------------
G|--3--------3--3-----------------------------2--------------3--------2-----3-----------------------
D|--------------------------0-----------------------------------------------------------------------
A|--1-----------------------------------------------------------------------1-----------------------
E|--------------------------------------------------3-----------------------------------------------

    Eb                      Bb                      Cm7                     F
E|--------------------------------------------------------------------------------------------------
B|--------------------------1-----------------------------------------------------------------------
G|--0--------2--------3-----------------3-----------------------------------------------------------
D|--1-----------------------------------------------1-----------------------------------------------
A|--------------------------1-----------------------3-----------------------------------------------
E|--------------------------------------------------------------------------1-----------------------

    Bb                      D                       Gm                      Bb
E|--------------------------------------------------------------------------------------------------
B|-----------------1--3-----4--------3--------------1-----------------------------------------------
G|--3--------3--3-----------------------------2--------------3--------2-----3-----------------------
D|--------------------------0-----------------------------------------------------------------------
A|--1-----------------------------------------------------------------------1-----------------------
E|--------------------------------------------------3-----------------------------------------------
 
                                                                                        bridge
    Eb                      Dm7                     Cm7                                 F7
E|--------------------------------------------------1-----------------------------------------------
B|--------------------------1-----------------------------------------------------------3-----1-----
G|--0--------2--------3-----------------3-----------------------------------------------------------
D|--1-----------------------0-----------------------------------------------------------------------
A|--------------------------------------------------3-----------------------------------------------
E|--------------------------------------------------------------------------------------1-----------

    Gm7                     Dm7                     Eb
E|--------------------------5--------5--------6-----1-----------------------------------------------
B|-----------1--------3-----------------------------------------------------------------------------
G|--3-----------------------------------------------------------------------------------------------
D|--------------------------0-----------------------1-----------------------------------------------
A|--------------------------------------------------------------------------------------------------
E|--3-----------------------------------------------------------------------------------------------

    Cm7                                             F
E|--1-----1--1--------------------------------------1-----------------------------------------------
B|--------------------4-----3-----------4-----------------------------------------------------------
G|--------------------------------------------------------------------------------------------------
D|--------------------------------------------------------------------------------------------------
A|--3-----------------------------------------------------------------------------------------------
E|--------------------------------------------------1-----------------------------------------------


reff
    Bb                      D7                      Gm7
E|--------------------------------------------------------------------------------------------------
B|--------------------------1-----------------------------------------------------------------------
G|--------------------3--------------3--------2-----3-----------------------------------------------
D|--0--------3--------------0-----------------------------------------------------------------------
A|--1-----------------------------------------------------------------------------------------------
E|--------------------------------------------------3-----------------------------------------------

    Cm7                                             F7
E|--------------------------------------------------------------------------------------------------
B|--------------------------3--------3--------4-----1-----------------------------------------------
G|-----------0--------3-----------------------------------------------------------------------------
D|--1-----------------------------------------------------------------------------------------------
A|--3-----------------------------------------------------------------------------------------------
E|--------------------------------------------------1-----------------------------------------------

    Dm7                                             Gm                      C7
E|--------------------------------------------------------------------------------------------------
B|--------------------------1--------------------------------1--------3-----------------------------
G|--------------------3--------------3--------2-----3-----------------------0-----------------------
D|--0--------3--------------------------------------------------------------------------------3--3--
A|--------------------------------------------------------------------------3-----------------------
E|--5-----------------------------------------------3-----------------------------------------------

    Cm7                     F                       Bb
E|--------------------------------------------------------------------------------------------------
B|--4-----4--4--------3-----1-----------------------------------------------------------------------
G|--------------------------------3--3--------2-----3-----------------------------------------------
D|--------------------------------------------------------------------------------------------------
A|--3-----------------------------------------------1-----------------------------------------------
E|--------------------------1-----------------------------------------------------------------------
tabs and chords, guitar tabs, music transcription, music technology, deep learning, music information retrieval, transcribe into tabs & chords, chordify, music renditions, songsterr, reverbnation, tabulature, bollywood chords, ultimate guitar, yousician, guitar lessons, acoustic guitar, electric guitar, guitar tuner, 911 tabs