Bass Tabs for Adonis

(/) Slide Up  (\) Slide Down  (h) Hammer On  (p) Pull Off  (b) Bend (r) Release (v) Vibrato (x) Muted

Tabs for Song : Adonis

intro is verse (after keys)

Verse (2x, when vocals come in)
G|--------------------------------------------------------------------------------------------------
D|--------3-----5-----------------3-----7--5--------------3-----5-----------------3-----------------
A|--5--------5-----------5-----------5--------------5--------5-----------5-----------5--------3-----
E|--------------------------------------------------------------------------------------3--5--------

Bless us with some heat... (2x)
G|--------------------------------------------------------------------------------------------------
D|-----------------3--7p-5-----------------3--5--7-----------------3--------------------------------
A|--5--------3--5-----------------------------------5-----------5-----3-----------------------3-----
E|-----------------------------------------------------------------------3-----------1--3--5--------

Verse (2x)

Bless us with some heat... (2x)

Brittle down to the bone... (3x)
G|--------------------------------------------------------------------------------------------------
D|--------------------------------------------7-----5-----------------------------------------------
A|--5-----------------------------------------------------------------------------------------------
E|--------------------------------------------------------------------------------------------------

G|--------------------------------------------------
D|--------------------------------------------------
A|--------------------------------------------------
E|--5-----------------------------------------------

(first 2x)
G|--------------------------------------------------
D|--------------------------------------------------
A|--------------------------------------------------
E|--6-----------------------------------------6--7--
(third)
G|--------------------------------------------------
D|--------------------------------------------------
A|--------------------------------------------------
E|--6-----------------------7-----------------------

Verse (2x)

Bless us with some heat (2x)

We can't take it anymore...
G|--------------------------------------------------------------------------------------------------
D|--------------------------------------------------------------------------------------------------
A|--------------------------------------------------------------------------------------------------
E|--3--3-----3-----3--3--3--3--3-----3-----3--3--3--3--3-----3-----3--3--3--3--3-----3-----3--3--3--

G|--------------------------------------------------------------------------------------------------
D|-----------------------------------------------------------------------------------------------3--
A|--5--5--3--5-----3--5--3--5--5--3--5-----3--5--5--5--5--3--5-----3--5--3--5--5--3--5-----3--5-----
E|--------------------------------------------------------------------------------------------------

G|--------------------------------------------------------------------------------------------------
D|--5-----5-----------------5-----------------------5-----------------------5-----------------------
A|-----------------------------------------------------------------------5--------------------------
E|-----------3-----------3-----3--3--3--------------------3--3-----3--5--------3--3--3--------------

G|--------------------------------------------------------------------------------------------------
D|--------------------------------------------------------------------------------------------------
A|--1-----1--1-----1--1--1--0-----0--0-----0--0--0--3--3--3--3-----3--3--3-----3--3--3--3--3--3--3--
E|--------------------------------------------------------------------------------------------------

Guitar solo
G|--------------------------------------------------------------------------------------------------
D|--------------------------------------------------------------------------------------------------
A|--5--5--5--5-----5--5--5--5--5--5--5--5--5--5--5--------------------------------------------------
E|--------------------------------------------------3--3--3--3-----3--3--3--3--3--3--3--3--3--3--3--

G|--------------------------------------------------------------------------------------------------
D|--------------------------------------------------------------------------------------------------
A|--------------------------------------------------------------------------------------------------
E|--3--3-----3-----3--3--3--3--3-----3-----3--3--3--3--3-----3-----3--3--3--3--3-----3-----3--3--3--

G|--------------------------------------------------------------------------------------------------
D|-----------------------------------------------------------------------------------------------3--
A|--5--5--3--5-----3--5--3--5--5--3--5-----3--5--5--5--5--3--5-----3--5--3--5--5--3--5-----3--5-----
E|--------------------------------------------------------------------------------------------------

G|--------------------------------------------------------------------------------------------------
D|--5-----5-----------------5-----------------------5-----------------------5-----------------------
A|-----------------------------------------------------------------------5--------------------------
E|-----------3-----------3-----3--3--3--------------------3--3-----3--5--------3--3--3--------------

We just wanna see the... (breakdown)
G|--------------------------------------------------------------------------------------------------
D|--------------------------------------------------3-----------------------5-----------------------
A|--1-----------------------0-----------------------------------------------------------------------
E|--------------------------------------------------------------------------------------------------

G|--------------------------------------------------
D|--7-----------------------------------------------
A|--------------------------------------------------
E|--------------------------------------------------


Brittle down to the bone alt (2x)
G|--------------------------------------------------------------------------------------------------
D|--------------------------------------------7-----5--5--5--5-----5--5--5--5--5--5--5--5-----------
A|--5--5--5--5-----5--5--5--5--5--5--5--------------------------------------------------------------
E|--------------------------------------------------------------------------------------------------

G|--------------------------------------------------------------------------------------------------
D|--------------------------------------------------------------------------------------------------
A|--------------------------------------------------------------------------------------------------
E|--5--5--5--5-----5--5--5--5--5--5--5-----5--5--5--6--6--6--6-----6--6--6--7--7--7--7--7--7--7--7--


Outro (3x)
G|--------------------------------------------------
D|--------3-----5-----------------3-----7--5--------
A|--5--------5-----------5-----------5--------------
E|--------------------------------------------------

end
G|--------------------------------------------------
D|--------3-----5-----------------------------------
A|--5--------5-----------5--------------------------
E|--------------------------------------------------


Paste any tab in acousterr's tab maker and we'll play it !!!
Now supports capo and sound effects for vibrato/pull-off/hammer/bends/mutes etc !!! Checkout help section
tabs and chords, guitar tabs, music contests, music covers, songsterr, reverbnation, renditions, tabulature, bollywood chords, ultimate guitar, yousician, guitar lessons, torrins, fender, gibson, acoustic guitar, electric guitar, youtube covers, gootar, guitar tuner, A-Z tabs, 911 tabs