Guitar Tabs for ????????

(/) Slide Up  (\) Slide Down  (h) Hammer On  (p) Pull Off  (b) Bend (r) Release (v) Vibrato (x) Muted

Tabs for Song : ????????

Intro
E|--------0--------0--------------------------
B|--------------------3-----------1-----------
G|--0--2-----2-----------0--0--------3-----0--
D|--------------------------------------4-----
A|--------------------------------------------
E|--------------------------------------------

Verse 
E|--------------------------------------------------------------------------------------
B|--------0--------------0--0-----0--1--0--------0-----------------------3--0-----0-----
G|-----------0--2--0--2--------------------2--0--------------2--0--0-----------0-----2--
D|--0--2-----------------------------------------------0--2-----------0-----------------
A|--------------------------------------------------------------------------------------
E|--------------------------------------------------------------------------------------

E|--------------------------------------------------------------------------------0--------------
B|--------0--------------0--0-----0--1--0--------0-----------------------0-----3-----3--0--------
G|-----------0--2--0--2--------------------2--0--------------2--0--0--2--------------------0--2--
D|--0--2-----------------------------------------------0--2--------------------------------------
A|-----------------------------------------------------------------------------------------------
E|-----------------------------------------------------------------------------------------------

Chorus 
E|--------------------------------2--0--------------------0--0--------------------------------------------------
B|-----3--3--0--0-----0-----0--3--------3--0--0-----0--3--------3--1--3--0-----0--------------------------0-----
G|--2--------------2--------------------------------------------------------------2--0--2-----0-----0--2-----2--
D|-----------------------------------------------------------------------------------------------2--------------
A|--------------------------------------------------------------------------------------------------------------
E|--------------------------------------------------------------------------------------------------------------

E|--------------------------------2--0--------3--------0-----0--------------------------------------------------
B|-----3--3--0--0-----0-----0--3--------3--0--------3-----------3--1--3--0--------------------------------0-----
G|--2--------------2-----------------------------------------------------------2--0-----2-----0-----0--2-----2--
D|-----------------------------------------------------------------------------------2-----------2--------------
A|--------------------------------------------------------------------------------------------------------------
E|--------------------------------------------------------------------------------------------------------------

E|-----------
B|--0--------
G|-----2--0--
D|-----------
A|-----------
E|-----------

Instru
E|--0--------0--------------0--3--5--5--7--3-----0--5--7--3-----3--5--7--8--10-12-14-15----12-10-7--5--3--0-----
B|-----3--0-----3--0-----3-----------------------------------------------------------------------------------3--
G|--------------------------------------------------------------------------------------------------------------
D|--------------------------------------------------------------------------------------------------------------
A|--------------------------------------------------------------------------------------------------------------
E|--------------------------------------------------------------------------------------------------------------

Verse
E|-----------------------------------------------------------------------------------------
B|--------0--------------0--0-----0--1--0--------0-----------------------3--0--------0-----
G|-----------0--2--0--2--------------------2--0--------------2--0--0-----------0--2-----2--
D|--0--2-----------------------------------------------0--2-----------0--------------------
A|-----------------------------------------------------------------------------------------
E|-----------------------------------------------------------------------------------------

E|-----------------------------------------------------------------------------------0-----0--3-----
B|-----3-----0--------------3--0-----0--1--0--------0-----------------------0-----3-----3--------3--
G|--------2-----0--2--0--2--------------------2--0--------------2--0--0--2--------------------------
D|--0-----------------------------------------------------0--2--------------------------------------
A|--------------------------------------------------------------------------------------------------
E|--------------------------------------------------------------------------------------------------

Chorus 
E|--------------------------------2--0--------------------0--0--------------------------------------------------
B|-----3--3--0--0-----0-----0--3--------3--0--0-----0--3--------3--1--3--0-----0--------------------------0-----
G|--2--------------2--------------------------------------------------------------2--0--2-----0-----0--2-----2--
D|-----------------------------------------------------------------------------------------------2--------------
A|--------------------------------------------------------------------------------------------------------------
E|--------------------------------------------------------------------------------------------------------------

E|--------------------------------2--0--------3--------0-----0--------------------------------------------------
B|-----3--3--0--0-----0-----0--3--------3--0--------3-----------3--1--3--0--------------------------------0-----
G|--2--------------2-----------------------------------------------------------2--0-----2-----0-----0--2-----2--
D|-----------------------------------------------------------------------------------2-----------2--------------
A|--------------------------------------------------------------------------------------------------------------
E|--------------------------------------------------------------------------------------------------------------

E|-----------
B|--0--------
G|-----2--0--
D|-----------
A|-----------
E|-----------

E|-----------------------0-------------(---3--0-----0----)---3--2----------------------------(---3--5--7--5--3--0----)---
B|--------------0-----------3--0--0----(---------3-----0-)---------3--3--0-----------3--0----(-----------------------)---
G|-----0--0--2-----2-------------------(-----------------)---------------------2-------------(-----------------------)---
D|--2----------------------------------(-----------------)------------------------2----------(-----------------------)---
A|-------------------------------------(-----------------)-----------------------------------(-----------------------)---
E|-------------------------------------(-----------------)-----------------------------------(-----------------------)---

E|-----0-----0-----0-----0-----0--2--0--------0--3--5--7--5--3-----0-----0--3--0--3-----0--3--7-----0--0--
B|--3-----3-----3-----3-----3-----------3-----------------------------3-----------------------------------
G|--------------------------------------------------------------------------------------------------------
D|--------------------------------------------------------------------------------------------------------
A|--------------------------------------------------------------------------------------------------------
E|--------------------------------------------------------------------------------------------------------

E|-----0--0--------------------0--4--2--0--------------0--2--2--0-----0--------------------------------------
B|--0--------2--2--0--2-----2--------------2--2-----2--------------3-----2-----2--0-----0-----------0--2--0--
G|-----------------------------------------------------------------------------------2-----2-----2-----------
D|--------------------------------------------------------------------------------------------4--------------
A|-----------------------------------------------------------------------------------------------------------
E|-----------------------------------------------------------------------------------------------------------

E|-----0--0--------------------0--4--2--0-----5-----0--2--2--0-----0--------------------------------------
B|--0--------2--2--0--2-----2--------------2--------------------3-----2-----2--0-----0-----------0--2--0--
G|--------------------------------------------------------------------------------2-----2-----2-----------
D|-----------------------------------------------------------------------------------------4--------------
A|--------------------------------------------------------------------------------------------------------
E|--------------------------------------------------------------------------------------------------------

E|-----0--0--------------------0--2--0-----0-----2--0-----0-----------------------------------------
B|--0--------2--2--0--2-----2-----------2--------------3-----2-----0--------0--------------0--2--0--
G|--------------------------------------------------------------------2-----------2-----2-----------
D|-----------------------------------------------------------------------4-----------4--------------
A|--------------------------------------------------------------------------------------------------
E|--------------------------------------------------------------------------------------------------

E|-----0--0--------------------0--4--2--0-----5-----0--2--2--0-----0-----------------------------------------
B|--0--------2--2--0--2-----2--------------2--------------------3-----2-----2--0-----0--------------0--2--0--
G|--------------------------------------------------------------------------------2--------2-----2-----------
D|--------------------------------------------------------------------------------------------4--------------
A|-----------------------------------------------------------------------------------------------------------
E|-----------------------------------------------------------------------------------------------------------

E|-----------
B|--2--0-----
G|--------2--
D|-----------
A|-----------
E|-----------

E|--0-------------------------(---3--4--0--3-----0----------)------
B|-----1--3--------1--0-------(---------------3-----0-------)------
G|-----------2-----------2----(------------------------0----)------
D|----------------------------(-----------------------------)------
A|----------------------------(-----------------------------)------
E|----------------------------(-----------------------------)------



Paste any tab in acousterr's tab maker and we'll play it !!!
Now supports capo and sound effects for vibrato/pull-off/hammer/bends/mutes etc !!! Checkout help section

tabs and chords, guitar tabs, music transcription, music technology, deep learning, music information retrieval, transcribe into tabs & chords, chordify, music renditions, songsterr, reverbnation, tabulature, bollywood chords, ultimate guitar, yousician, guitar lessons, acoustic guitar, electric guitar, guitar tuner, 911 tabs