Guitar Tabs for A

(/) Slide Up  (\) Slide Down  (h) Hammer On  (p) Pull Off  (b) Bend (r) Release (v) Vibrato (x) Muted

Tabs for Song : 

Song lyrics here
D|--------2--------2--------2--------2--------4--
B|-----2--------2--------2--------2--------2-----
F|--1--------1--------1--------1--------0--------
D|-----------------------------------------------
A|-----------------------------------------------
D|-----------------------------------------------

D|--------4-----------4-----------4-----------0-----------0-----------0-----------0-----------0-----------0-----------1-----------1-----
B|-----2-----------2-----------2-----------0-----------0-----------0-----------0-----------0-----------0-----------0-----------0--------
F|--0-----------0-----------0-----------0-----------0-----------1-----------1-----------0-----------0-----------0-----------0-----------
D|--------------------------------------------------------------------------------------------------------------------------------------
A|--------------------------------------------------------------------------------------------------------------------------------------
D|--------------------------------------------------------------------------------------------------------------------------------------

Song lyrics here
D|--
B|--
F|--
D|--
A|--
D|--

Paste any tab in acousterr's tab maker and we'll play it !!!
Now supports capo and sound effects for vibrato/pull-off/hammer/bends/mutes etc !!! Checkout help section
tabs and chords, guitar tabs, music transcription, music technology, deep learning, music information retrieval, transcribe into tabs & chords, chordify, music renditions, songsterr, reverbnation, tabulature, bollywood chords, ultimate guitar, yousician, guitar lessons, acoustic guitar, electric guitar, guitar tuner, 911 tabs