Guitar Tabs for 2

(/) Slide Up  (\) Slide Down  (h) Hammer On  (p) Pull Off  (b) Bend (r) Release (v) Vibrato (x) Muted

Tabs for Song : 

Song lyrics here
E|--------------------------------------------------------------------------------------------------
B|-----4-----3--------4-----3--------4-----6--4--3-----4-----3--------4-----3--------4-----6--4--3--
G|--------5-----5--------5-----5--------5-----------------5-----5--------5-----5--------5-----------
D|--------------------------------------------------------------------------------------------------
A|--3--------------3--------------------------------3--------------3--------------------------------
E|--------------------------------3-----------------------------------------------3-----------------

Song lyrics here
E|--------------------------------------------------------------------------------------------------
B|-----4-----3--------4-----3--------4-----6--4--3-----4-----3--------4-----3--------4-----6--4--3--
G|--------5-----5--------5-----5--------5-----------------5-----5--------5-----5--------5-----------
D|--------------------------------------------------------------------------------------------------
A|--3--------------3--------------------------------3--------------3--------------------------------
E|--------------------------------3-----------------------------------------------3-----------------

E|-----------------------------------------3--1-----------------------------------------------------------
B|-----------------------------1--3--4--3--------4--3--1--------------------------------------------------
G|--3--1--0-----1--0-----1--0-----------------------------3--1--0-----1--0-----1--0-----0--1--------------
D|-----------1-----------------------------------------------------1--------------------------1-----------
A|--------------------2-----------------------------------------------------2--------3-----------2-----2--
E|--------------------------------------------------------------------------------------------------3-----

E|--------------------------------------------------------------------------------------------------
B|-----4-----3--------4-----3--------4-----6--4--3-----4-----3--------4-----3--------4-----6--4--3--
G|--------5-----5--------5-----5--------5-----------------5-----5--------5-----5--------5-----------
D|--------------------------------------------------------------------------------------------------
A|--3--------------3--------------------------------3--------------3--------------------------------
E|--------------------------------3-----------------------------------------------3-----------------

E|-----------------------------------------------------------------------------------------
B|-----4-----3--------4-----3--------4-----6--4--3-----4-----3--------4-----3--------4-----
G|--------5-----5--------5-----5--------5-----------------5-----5--------5-----5--------5--
D|-----------------------------------------------------------------------------------------
A|--3--------------3--------------------------------3--------------3-----------------------
E|--------------------------------3-----------------------------------------------3--------

E|-----4--------3--------1--------------
B|--------4--1-----4--0-----4---3/4--1--
G|--------------------------------------
D|--------------------------------------
A|-----------------------------------3--
E|--------------------------------------

E|--
B|--
G|--
D|--
A|--
E|--

Paste any tab in acousterr's tab maker and we'll play it !!!
Now supports capo and sound effects for vibrato/pull-off/hammer/bends/mutes etc !!! Checkout help section
tabs and chords, guitar tabs, music transcription, music technology, deep learning, music information retrieval, transcribe into tabs & chords, chordify, music renditions, songsterr, reverbnation, tabulature, bollywood chords, ultimate guitar, yousician, guitar lessons, acoustic guitar, electric guitar, guitar tuner, 911 tabs