Guitar Tabs for 1

(/) Slide Up  (\) Slide Down  (h) Hammer On  (p) Pull Off  (b) Bend (r) Release (v) Vibrato (x) Muted

Tabs & Chords
BPM : 98.0
Check Track 2 for Chord Positions 

    Dm                                  A                          F                          
E|-----------------------------------0--0--0--0--0--0--0-----0--------------------------------
B|--------------------------------------------------------------------------------------------
G|--------------------------------------------------------------------14-------------14----12-
D|--15----15-15-15-15-15-15----12-------------------------------15-15----------15-------------
A|--------------------------------------------------------------------------------------------
E|-----------------------------------------------------------------------13-------------------

       C                 Gm                         A              C           Gm             F  
E|-----------0--------------------------------------0-----------------0--0--------0--------------
B|--------------------------------------------14-------------------------------------------------
G|-----12----------14----12-12----12----12-------14----------------------------------------------
D|--------------------------------------------------------15-------15-------15-12----15-15----15-
A|--------------15-------------------------------------0-----------------------------------------
E|-----------------------------------------------------------------------------------------------

                         Dm       D        Dm                   C           
E|--0--0-----13-13-------15-15-13-15-17-------------------------------13-15-
B|--------------------------------------------------------------13-15-------
G|--------------------------------------------------------------------------
D|-----------------------------------------12----12-------12-15-------------
A|--------15-------------------------------------------12-------------------
E|--------------------------------------------------------------------------

Guitar Tabs for 1






    Dm                                  A                          F                          
E|--1-----------------------------------0--------------------------1--------------------------
B|--3-----------------------------------2--------------------------1--------------------------
G|--2-----------------------------------2--------------------------2--------------------------
D|--0-----------------------------------2--------------------------3--------------------------
A|--------------------------------------0--------------------------3--------------------------
E|-----------------------------------------------------------------1--------------------------

       C                 Gm                         A              C           Gm             F  
E|-----0-----------------3--------------------------0--------------0-----------3--------------1--
B|-----1-----------------3--------------------------2--------------1-----------3--------------1--
G|-----0-----------------3--------------------------2--------------0-----------3--------------2--
D|-----2-----------------5--------------------------2--------------2-----------5--------------3--
A|-----3-----------------5--------------------------0--------------3-----------5--------------3--
E|-----------------------3-----------------------------------------------------3--------------1--

                         Dm       D        Dm                   C           
E|-----------------------1--------2--------1--------------------0-----------
B|-----------------------3--------3--------3--------------------1-----------
G|-----------------------2--------2--------2--------------------0-----------
D|-----------------------0--------0--------0--------------------2-----------
A|--------------------------------------------------------------3-----------
E|--------------------------------------------------------------------------

tabs and chords, guitar tabs, music transcription, music technology, deep learning, music information retrieval, transcribe into tabs & chords, chordify, music renditions, songsterr, reverbnation, tabulature, bollywood chords, ultimate guitar, yousician, guitar lessons, acoustic guitar, electric guitar, guitar tuner, 911 tabs