Guitar Tabs for 1

(/) Slide Up  (\) Slide Down  (h) Hammer On  (p) Pull Off  (b) Bend (r) Release (v) Vibrato (x) Muted

Tabs for Song : 

Song lyrics here
E|--------------------0--------------------------1--------3--------1--------------------------0-----------------------------------0-----------------
B|-----------1-----------------1--------------3-----3--------3--------3--------------1-----------------1-----------------0-----------------0--------
G|--------2-----2--------2--------2--------2-----------2--------2--------2--------2-----2--------2--------2-----------2-----2--------2--------2-----
D|-----2-----------2--------2--------2-----------------------------------------3-----------3--------3--------3-----1-----------1--------1--------1--
A|--0-----------------------------------0-----------------------------------0-----------------------------------2-----------------------------------
E|--------------------------------------------------------------------------------------------------------------------------------------------------

E|--------------------------------------------------------------------------------------------------------------------------------------------------------------------------------------------------
B|--------1--1--------1--1--------1--1--------1--1--------------------------------------------------------0--0--------0--0--------0--0--------0--0--------------------------------------------------
G|--------2--2--------2--2--------2--2--------2--2--------0--0--------0--0--------0--0--------0--0--------2--2--------2--2--------2--2--------2--2--------0--0--------0--0--------0--0--------0--0--
D|-----2-----------2-----------2-----------2--------------2--2--------2--2--------2--2--------2--2-----1-----------1-----------1-----------1--------------2--2--------2--2--------2--2--------2--2--
A|--0-----------------------0--------------------------2-----------2-----------2-----------2--------2-----------------------2--------------------------2-----------2-----------2-----------2--------
E|--------------------------------------------------0-----------------------0-----------------------------------------------------------------------0-----------------------0-----------------------

Strumming Am, Em, D7, Em 
Down Down Up Down Down Down Up Down Down

E|--------------------------------------------------------------------------------------------------
B|--------------------------------------------------------------------------------------------------
G|--------1-----------1-----------0-----------0-----------2-----------2-----------0-----------0-----
D|-----2-----2-----2-----2-----2-----2-----2-----2-----1-----1-----1-----1-----2-----2-----2-----2--
A|--0-----------0-----------2-----------2-----------2-----------2-----------2-----------2-----------
E|--------------------------------------------------------------------------------------------------

E|--------------------3-----------------------------------3-----------------------------------3-----------------------------------3-----------------
B|-----------1-----------------1-----------------0-----------------0-----------------0-----------------0-----------------0-----------------0--------
G|--------2-----2--------2--------2-----------0-----0--------0--------0-----------2-----2--------2--------2-----------0-----0--------0--------0-----
D|-----2-----------2--------2--------2-----2-----------2--------2--------2-----1-----------1--------1--------1-----2-----------2--------2--------2--
A|--0-----------------------------------------------------------------------2-----------------------------------------------------------------------
E|--------------------------------------0-----------------------------------------------------------------------0-----------------------------------

E|--------------------3--------------------------1--------3--------1--------------------------3-----------------------------------3-----------------
B|-----------1-----------------1--------------3-----3--------3--------3--------------1-----------------1-----------------0-----------------0--------
G|--------2-----2--------2--------2--------2-----------2--------2--------2--------2-----2--------2--------2-----------2-----2--------2--------2-----
D|-----2-----------2--------2--------2-----------------------------------------3-----------3--------3--------3-----1-----------1--------1--------1--
A|--0-----------------------------------0-----------------------------------------------------------------------------------------------------------
E|--------------------------------------------------------------------------0-----------------------------------0-----------------------------------

Song lyrics here
E|--
B|--
G|--
D|--
A|--
E|--

Paste any tab in acousterr's tab maker and we'll play it !!!
Now supports capo and sound effects for vibrato/pull-off/hammer/bends/mutes etc !!! Checkout help section
tabs and chords, guitar tabs, music contests, music covers, songsterr, reverbnation, renditions, tabulature, bollywood chords, ultimate guitar, yousician, guitar lessons, torrins, fender, gibson, acoustic guitar, electric guitar, youtube covers, gootar, guitar tuner, A-Z tabs, 911 tabs