Guitar Tabs for 1

(/) Slide Up  (\) Slide Down  (h) Hammer On  (p) Pull Off  (b) Bend (r) Release (v) Vibrato (x) Muted

Tabs for Song : Public Access T.V. - Metropolis
                Guitar 1 - Rhythm - John Eatherly 
BPM : 248

   F#m                                 C#m             
E|--9-----------------------9-----------9--9-----9--------------9-----------------------
B|--10----------------------------10----9--9-----9--------------------9-----------------
G|--11----------------------------------9--9-----9--------------------------9-----------
D|--11----------------------------------------------------------------------------------
A|--9-----------------------------------------------------------------------------------
E|--------------------------------------------------------------------------------------
    B                                           F#m                   C#m
E|--7--------------------------------------------9--------------------9--9--9-----9-----9--------------
B|--7--------------------------12----------------10-------------------9--9--9-----9-----9--------------
G|--8-----------9------9h11-------11----9--11----11-------------------9--9--9-----9-----9--------------
D|--9--------------------------------------------11-------------------11-11-11----11----11-------------
A|--9--------------------------------------------9--------------------11-11-11----11----11-------------
E|--7-----------------------------------------------------------------9--9--9-----9-----9--------------
   F#m                                 C#m      
E|--9-----------------------9-----------9--9-----9--------------9-----9--------9-----------
B|--10----------------------------10----9--9-----9--------------9-----9--------------9-----
G|--11----------------------------------9--9-----9--------------9-----9--------------------
D|--11-------------------------------------------------------------------------------------
A|--9--------------------------------------------------------------------------------------
E|-----------------------------------------------------------------------------------------
    B                                           F#m                  C#m
E|--7--------------------------------------------9--------------------9--9--9-----9-----9--
B|--7--------------------------12----------------10-------------------9--9--9-----9-----9--
G|--8------------------9h11----------------------11-------------------9--9--9-----9-----9--
D|--9--------------------------------------------11-------------------11-11-11----11----11-
A|--9--------------------------------------------9--------------------11-11-11----11----11-
E|--7-----------------------------------------------------------------9--9--9-----9-----9--
                  C#m
E|-----------------9--9--9-----9-----9--------------------
B|-----------------9--9--9-----9-----9--------------------
G|-----------------9--9--9-----9-----9--------------------
D|-----------------11-11-11----11----11-------------------
A|-----------------11-11-11----11----11-------------------
E|-----------------9--9--9-----9-----9--------------------

Pre Chorus:
    Dm                                              A
E|--5--5--5--5--5--5--5--5--5--5--5--5--5--5--5--5--5--5--5--5--5--5--5--5--5--5--5--5--5--5--5--5--
B|--6--6--6--6--6--6--6--6--6--6--6--6--6--6--6--6--5--5--5--5--5--5--5--5--5--5--5--5--5--5--5--5--
G|--7--7--7--7--7--7--7--7--7--7--7--7--7--7--7--7--6--6--6--6--6--6--6--6--6--6--6--6--6--6--6--6--
D|--7--7--7--7--7--7--7--7--7--7--7--7--7--7--7--7--7--7--7--7--7--7--7--7--7--7--7--7--7--7--7--7--
A|--5--5--5--5--5--5--5--5--5--5--5--5--5--5--5--5--7--7--7--7--7--7--7--7--7--7--7--7--7--7--7--7--
E|--------------------------------------------------5--5--5--5--5--5--5--5--5--5--5--5--5--5--5--5--

    Dm                                              A
E|--5--5--5--5--5--5--5--5--5--5--5--5--5--5--5--5--5--5--5--5--5--5--5--5--5--5--5--5--5--5--5--5--
B|--6--6--6--6--6--6--6--6--6--6--6--6--6--6--6--6--5--5--5--5--5--5--5--5--5--5--5--5--5--5--5--5--
G|--7--7--7--7--7--7--7--7--7--7--7--7--7--7--7--7--6--6--6--6--6--6--6--6--6--6--6--6--6--6--6--6--
D|--7--7--7--7--7--7--7--7--7--7--7--7--7--7--7--7--7--7--7--7--7--7--7--7--7--7--7--7--7--7--7--7--
A|--5--5--5--5--5--5--5--5--5--5--5--5--5--5--5--5--7--7--7--7--7--7--7--7--7--7--7--7--7--7--7--7--
E|--------------------------------------------------5--5--5--5--5--5--5--5--5--5--5--5--5--5--5--5--

    Dm                                              A
E|--5--5--5--5--5--5--5--5--5--5--5--5--5--5--5--5--5--5--5--5--5--5--5--5--5--5--5--5--5--5--5--5--
B|--6--6--6--6--6--6--6--6--6--6--6--6--6--6--6--6--5--5--5--5--5--5--5--5--5--5--5--5--5--5--5--5--
G|--7--7--7--7--7--7--7--7--7--7--7--7--7--7--7--7--6--6--6--6--6--6--6--6--6--6--6--6--6--6--6--6--
D|--7--7--7--7--7--7--7--7--7--7--7--7--7--7--7--7--7--7--7--7--7--7--7--7--7--7--7--7--7--7--7--7--
A|--5--5--5--5--5--5--5--5--5--5--5--5--5--5--5--5--7--7--7--7--7--7--7--7--7--7--7--7--7--7--7--7--
E|--------------------------------------------------5--5--5--5--5--5--5--5--5--5--5--5--5--5--5--5--


   Dm                                               D6
E|--5--------5-----------5--5--------5--------5-----7--------7-----------7--7--------7--------7-----
B|--6--------6-----------6--6--------6--------6-----7--------7-----------7--7--------7--------7-----
G|--7--------7-----------7--7--------7--------7-----7--------7-----------7--7--------7--------7-----
D|--7--------7-----------7--7--------7--------7-----7--------7-----------7--7--------7--------7-----
A|--5--------5-----------5--5--------5--------5-----5--------5-----------5--5--------5--------5-----
E|--------------------------------------------------------------------------------------------------
    E
E|--7--7--7--7--7--7--7--7--7--7--7--7--7--7--7--7--
B|--9--9--9--9--9--9--9--9--9--9--9--9--9--9--9--9--
G|--9--9--9--9--9--9--9--9--9--9--9--9--9--9--9--9--
D|--9--9--9--9--9--9--9--9--9--9--9--9--9--9--9--9--
A|--7--7--7--7--7--7--7--7--7--7--7--7--7--7--7--7--
E|--------------------------------------------------

   F#m                     C#m                      B
E|--9-----------------------9-----------------------7-----------------
B|--10----------------------9-----------------------7-----------------
G|--11----------------------9-----------------------8-----------------
D|--11----------------------11----------------------9-----------------
A|--9-----------------------11----------------------9-----------------
E|--------------------------9-----------------------7-----------------

E|-----------------------------------
B|--------------12-------------------
G|---9h11----------------11----------
D|-----------------------------------
A|-----------------------------------
E|-----------------------------------

Verse 2:

   F#m                                 C#m             
E|--9-----------------------9-----------9--9-----9--------------9-----------------------
B|--10----------------------------10----9--9-----9--------------------9-----------------
G|--11----------------------------------9--9-----9--------------------------------------
D|--11----------------------------------------------------------------------------------
A|--9-----------------------------------------------------------------------------------
E|--------------------------------------------------------------------------------------
    B                                           F#m                   C#m
E|--7--------------------------------------------9--------------------9--9--9-----9-----9--------------
B|--7--------------------------------------------10-------------------9--9--9-----9-----9--------------
G|--8--------------------------------------------11-------------------9--9--9-----9-----9--------------
D|--9--------------------------------------------11-------------------11-11-11----11----11-------------
A|--9--------------------------------------------9--------------------11-11-11----11----11-------------
E|--7-----------------------------------------------------------------9--9--9-----9-----9--------------
   F#m                                 C#m      
E|--9-----------------------------------9--9-----9--------------9-----9-----x--9-----9-----
B|--10----------------------------------9--9-----9--------------9-----9-----x--9-----9-----
G|--11----------------------------------9--9-----9--------------9-----9-----x--9-----9-----
D|--11----------------------------------------------------------------------x--------------
A|--9-----------------------------------------------------------------------x--------------
E|--------------------------------------------------------------------------x--------------
    B                                           F#m                  C#m
E|--7--------------------------------------------9--------------------9--9--9-----9-----9--
B|--7--------------------------12----------------10-------------------9--9--9-----9-----9--
G|--8------------------9h11----------------------11-------------------9--9--9-----9-----9--
D|--9--------------------------------------------11-------------------11-11-11----11----11-
A|--9--------------------------------------------9--------------------11-11-11----11----11-
E|--7-----------------------------------------------------------------9--9--9-----9-----9--
                  C#m
E|-----------------9--9--9-----9-----9--------------------
B|-----------------9--9--9-----9-----9--------------------
G|-----------------9--9--9-----9-----9--------------------
D|-----------------11-11-11----11----11-------------------
A|-----------------11-11-11----11----11-------------------
E|-----------------9--9--9-----9-----9--------------------


Pre Chorus:
    Dm                                              A
E|--5--5--5--5--5--5--5--5--5--5--5--5--5--5--5--5--5--5--5--5--5--5--5--5--5--5--5--5--5--5--5--5--
B|--6--6--6--6--6--6--6--6--6--6--6--6--6--6--6--6--5--5--5--5--5--5--5--5--5--5--5--5--5--5--5--5--
G|--7--7--7--7--7--7--7--7--7--7--7--7--7--7--7--7--6--6--6--6--6--6--6--6--6--6--6--6--6--6--6--6--
D|--7--7--7--7--7--7--7--7--7--7--7--7--7--7--7--7--7--7--7--7--7--7--7--7--7--7--7--7--7--7--7--7--
A|--5--5--5--5--5--5--5--5--5--5--5--5--5--5--5--5--7--7--7--7--7--7--7--7--7--7--7--7--7--7--7--7--
E|--------------------------------------------------5--5--5--5--5--5--5--5--5--5--5--5--5--5--5--5--

    Dm                                              A
E|--5--5--5--5--5--5--5--5--5--5--5--5--5--5--5--5--5--5--5--5--5--5--5--5--5--5--5--5--5--5--5--5--
B|--6--6--6--6--6--6--6--6--6--6--6--6--6--6--6--6--5--5--5--5--5--5--5--5--5--5--5--5--5--5--5--5--
G|--7--7--7--7--7--7--7--7--7--7--7--7--7--7--7--7--6--6--6--6--6--6--6--6--6--6--6--6--6--6--6--6--
D|--7--7--7--7--7--7--7--7--7--7--7--7--7--7--7--7--7--7--7--7--7--7--7--7--7--7--7--7--7--7--7--7--
A|--5--5--5--5--5--5--5--5--5--5--5--5--5--5--5--5--7--7--7--7--7--7--7--7--7--7--7--7--7--7--7--7--
E|--------------------------------------------------5--5--5--5--5--5--5--5--5--5--5--5--5--5--5--5--

    Dm                                              A
E|--5--5--5--5--5--5--5--5--5--5--5--5--5--5--5--5--5--5--5--5--5--5--5--5--5--5--5--5--5--5--5--5--
B|--6--6--6--6--6--6--6--6--6--6--6--6--6--6--6--6--5--5--5--5--5--5--5--5--5--5--5--5--5--5--5--5--
G|--7--7--7--7--7--7--7--7--7--7--7--7--7--7--7--7--6--6--6--6--6--6--6--6--6--6--6--6--6--6--6--6--
D|--7--7--7--7--7--7--7--7--7--7--7--7--7--7--7--7--7--7--7--7--7--7--7--7--7--7--7--7--7--7--7--7--
A|--5--5--5--5--5--5--5--5--5--5--5--5--5--5--5--5--7--7--7--7--7--7--7--7--7--7--7--7--7--7--7--7--
E|--------------------------------------------------5--5--5--5--5--5--5--5--5--5--5--5--5--5--5--5--


   Dm                                               D6
E|--5--------5-----------5--5--------5--------5-----7--------7-----------7--7--------7--------7-----
B|--6--------6-----------6--6--------6--------6-----7--------7-----------7--7--------7--------7-----
G|--7--------7-----------7--7--------7--------7-----7--------7-----------7--7--------7--------7-----
D|--7--------7-----------7--7--------7--------7-----7--------7-----------7--7--------7--------7-----
A|--5--------5-----------5--5--------5--------5-----5--------5-----------5--5--------5--------5-----
E|--------------------------------------------------------------------------------------------------
    E
E|--7--7--7--7--7--7--7--7--7--7--7--7--7--7--7--7--
B|--9--9--9--9--9--9--9--9--9--9--9--9--9--9--9--9--
G|--9--9--9--9--9--9--9--9--9--9--9--9--9--9--9--9--
D|--9--9--9--9--9--9--9--9--9--9--9--9--9--9--9--9--
A|--7--7--7--7--7--7--7--7--7--7--7--7--7--7--7--7--
E|--------------------------------------------------

Chorus:
    A                       D       F#m    E     A
E|--5--5--5--5--5--5--5--5--5--5-----9-----7-----5--
B|--5--5--5--5--5--5--5--5--7--7-----10----9-----5--
G|--6--6--6--6--6--6--6--6--7--7-----11----9-----6--
D|--7--7--7--7--7--7--7--7--7--7-----11----9-----7--
A|--7--7--7--7--7--7--7--7--5--5-----9-----7-----7--
E|--5--5--5--5--5--5--5--5-----------------------5--
    A                       D       F#m    E     A
E|--5--5--5--5--5--5--5--5--5--5-----9-----7-----0--
B|--5--5--5--5--5--5--5--5--7--7-----10----9-----2--
G|--6--6--6--6--6--6--6--6--7--7-----11----9-----2--
D|--7--7--7--7--7--7--7--7--7--7-----11----9-----2--
A|--7--7--7--7--7--7--7--7--5--5-----9-----7-----0--
E|--5--5--5--5--5--5--5--5--------------------------
    B                    E                          B                    E
E|--2-----2-----2--2--2--0-----0-----0-----0--0--0--2-----2-----2--2--2--0-----0-----0--0--0--0--0--
B|--4-----4-----4--4--4--0-----0-----0-----0--0--0--4-----4-----4--4--4--0-----0-----0--0--0--0--0--
G|--4-----4-----4--4--4--1-----1-----1-----1--1--1--4-----4-----4--4--4--1-----1-----1--1--1--1--1--
D|--4-----4-----4--4--4--2-----2-----2-----2--2--2--4-----4-----4--4--4--2-----2-----2--2--2--2--2--
A|--2-----2-----2--2--2--2-----2-----2-----2--2--2--2-----2-----2--2--2--2-----2-----2--2--2--2--2--
E|-----------------------0-----0-----0-----0--0--0-----------------------0-----0-----0--0--0--0--0--

    A                       D       F#m    E     A
E|--5--5--5--5--5--5--5--5--5--5-----9-----7-----5--
B|--5--5--5--5--5--5--5--5--7--7-----10----9-----5--
G|--6--6--6--6--6--6--6--6--7--7-----11----9-----6--
D|--7--7--7--7--7--7--7--7--7--7-----11----9-----7--
A|--7--7--7--7--7--7--7--7--5--5-----9-----7-----7--
E|--5--5--5--5--5--5--5--5-----------------------5--
    A                       D       F#m    E     A
E|--5--5--5--5--5--5--5--5--5--5-----9-----7-----5--
B|--5--5--5--5--5--5--5--5--7--7-----10----9-----5--
G|--6--6--6--6--6--6--6--6--7--7-----11----9-----6--
D|--7--7--7--7--7--7--7--7--7--7-----11----9-----7--
A|--7--7--7--7--7--7--7--7--5--5-----9-----7-----7--
E|--5--5--5--5--5--5--5--5-----------------------5--
    B                    E                          B                    E
E|--2-----2-----2--2--2--0-----0-----0-----0--0--0--2-----2-----2--2--2--0--------------------------------------------------
B|--4-----4-----4--4--4--0-----0-----0-----0--0--0--4-----4-----4--4--4--0--------------------------------------------------
G|--4-----4-----4--4--4--1-----1-----1-----1--1--1--4-----4-----4--4--4--1--------------------------------------------------
D|--4-----4-----4--4--4--2-----2-----2-----2--2--2--4-----4-----4--4--4--2--------------------------------------------------
A|--2-----2-----2--2--2--2-----2-----2-----2--2--2--2-----2-----2--2--2--2--------------------------------------------------
E|-----------------------0-----0-----0-----0--0--0-----------------------0--------------------------------------------------
 
 Outro:
 
E|--------------------------------------------------
B|--13b14-------13b14-------13-11-------11----13----
G|--------------------------------12----------------
D|--------------------------------------------------
A|--------------------------------------------------
E|--------------------------------------------------
 
E|--------------------------------------------------
B|--13b14-------13b14-------13-11-------11----13----
G|--------------------------------12----------------
D|--------------------------------------------------
A|--------------------------------------------------
E|--------------------------------------------------
 
E|--------------------------------------------------
B|--13b14-------13b14-------13-11-------11----13----
G|--------------------------------12----------------
D|--------------------------------------------------
A|--------------------------------------------------
E|--------------------------------------------------
 

E|--------------------15----------------------------
B|--13b14----13----------------11-------13b14-13b14-
G|--------------------------------------------------
D|--------------------------------------------------
A|-----------------------------------------------
E|-----------------------------------------------

 
E|--------------------------------------------------
B|--13b14-------13b14-------13-11-------11----13----
G|--------------------------------12----------------
D|--------------------------------------------------
A|--------------------------------------------------
E|--------------------------------------------------
 
E|--------------------------------------------------
B|--13b14-------13b14-------13-11-------11----13----
G|--------------------------------12----------------
D|--------------------------------------------------
A|--------------------------------------------------
E|--------------------------------------------------
 
E|--------------------------------------------------
B|--13b14-------13b14-------13-11-------11----13----
G|--------------------------------12----------------
D|--------------------------------------------------
A|--------------------------------------------------
E|--------------------------------------------------
 

Guitar Tabs for 1




Verse: The second is really quiet in the mix, its hard to hear exactly whats playing. Its something like this though.
You could also just play the same chords as the first guitar. 

E|--------------------------------------------------
B|--------------------------------------------------
G|--------------------------------------------------
D|--11----------------------------------11-11----11-
A|--9-----------------------------------9--9-----9--
E|--------------------------------------------------

E|-----------------------------------------------------------------------------------------
B|-----------------------------------------------------------------------------------------
G|-----------------------------------------------------------------------------------------
D|--9--------------------------9-----------------11-------------------11-11-11----11----11-
A|--9------------------7h9-----------------------9--------------------11-11-11----11----11-
E|--------------------------------------------------------------------9--9--9-----9-----9--

E|-----------------------------------------------------------------------------------------
B|-----------------------------------------------------------------------------------------
G|-----------------------------------------------------------------------------------------
D|--11----------------------------------11-11----11----------------------------------------
A|--9-----------------------------------9--9-----9-----------------------------------------
E|-----------------------------------------------------------------------------------------

E|-----------------------------------------------------------------------------------------
B|-----------------------------------------------------------------------------------------
G|-----------------------------------------------------------------------------------------
D|--9--------------------------------------------11-------------------11-11-11----11----11-
A|--9--------------------------------------------9--------------------11-11-11----11----11-
E|--------------------------------------------------------------------9--9--9-----9-----9--

E|--------------------------------------
B|--------------------------------------
G|--------------------------------------
D|-----------------11-11-11----11----11-
A|-----------------11-11-11----11----11-
E|-----------------9--9--9-----9-----9--



E|-----------5------------------------------------------
B|--------6--------------------14\12-12\10-10----10/14-
G|-----7-----------------------x--x--x--x--x-----x--x--
D|--7--------------------------11\9---9\7--7------7/11-
A|-----------------------------------------------------
E|-----------------------------------------------------


E|-----------5--------------------------------------
B|--------6--------------------14\12-12\10-10----10-
G|-----7-----------------------x--x--x--x--x-----x--
D|--7--------------------------11\9---9\7--7-----7--
A|--------------------------------------------------
E|--------------------------------------------------


E|-----------5-----------------------------------------
B|--------6--------------------14\12-12\10-10----10/14-
G|-----7-----------------------x--x--x--x--x-----x--x--
D|--7--------------------------11\9---9\7--7------7/11-
A|-----------------------------------------------------
E|-----------------------------------------------------










E|--0--0--0--0--0--0--0--0--0--0--0--0--0--0--0--0--
B|--0--0--0--0--0--0--0--0--0--0--0--0--0--0--0--0--
G|--1--1--1--1--1--1--1--1--1--1--1--1--1--1--1--1--
D|--2--2--2--2--2--2--2--2--2--2--2--2--2--2--2--2--
A|--2--2--2--2--2--2--2--2--2--2--2--2--2--2--2--2--
E|--0--0--0--0--0--0--0--0--0--0--0--0--0--0--0--0--


E|-----------------------------------------------------------
B|-----------------------------------------------------------
G|-----------------------------------------------------------
D|-----------------------------------------------------------
A|-----------------------------------------------------------
E|--------2-----------------------2-----------------------2--







































E|-----------------
B|-----------------
G|-----------------
D|-----------------
A|-----------------
E|-----------------











Pre Chorus:

E|-----------5------------------------------------------
B|--------6--------------------14\12-12\10-10----10/14-
G|-----7-----------------------x--x--x--x--x-----x--x--
D|--7--------------------------11\9---9\7--7------7/11-
A|-----------------------------------------------------
E|-----------------------------------------------------


E|-----------5--------------------------------------
B|--------6--------------------14\12-12\10-10----10-
G|-----7-----------------------x--x--x--x--x-----x--
D|--7--------------------------11\9---9\7--7-----7--
A|--------------------------------------------------
E|--------------------------------------------------



E|-----------5-----------------------------------------
B|--------6--------------------14\12-12\10-10----10/14-
G|-----7-----------------------x--x--x--x--x-----x--x--
D|--7--------------------------11\9---9\7--7------7/11-
A|-----------------------------------------------------
E|-----------------------------------------------------









    E
E|--0--0--0--0--0--0--0--0--0--0--0--0--0--0--0--0--
B|--0--0--0--0--0--0--0--0--0--0--0--0--0--0--0--0--
G|--1--1--1--1--1--1--1--1--1--1--1--1--1--1--1--1--
D|--2--2--2--2--2--2--2--2--2--2--2--2--2--2--2--2--
A|--2--2--2--2--2--2--2--2--2--2--2--2--2--2--2--2--
E|--0--0--0--0--0--0--0--0--0--0--0--0--0--0--0--0-

Chorus:
   A    Aadd9 A    Aadd9 A  D5      F#m    E    
E|-----------------------------------9-----7--------
B|-----------------------------------10----9--------
G|--6--6--6--6--6--6--6--6--7--7-----11----9--------
D|--7--7--9--7--7--7--9--7--7--7-----11----9--------
A|--7--7--7--7--7--7--7--7--5--5-----9-----7--------
E|--5--5--5--5--5--5--5--5--------------------------
   A    Aadd9 A    Aadd9 A  D5      F#m    E  
E|-----------------------------------9-----7--------
B|-----------------------------------10----9--------
G|--6--6--6--6--6--6--6--6--7--7-----11----9--------
D|--7--7--9--7--7--7--9--7--7--7-----11----9--------
A|--7--7--7--7--7--7--7--7--5--5-----9-----7--------
E|--5--5--5--5--5--5--5--5--------------------------

E|--7-----7-----7--7--7--7-----7-----7-----7--7--7--7-----7-----7--7--7--7-----7-----7--7--7--7--7--
B|--7-----7-----7--7--7--9-----9-----9-----9--9--9--7-----7-----7--7--7--9-----9-----9--9--9--9--9--
G|--8-----8-----8--8--8--9-----9-----9-----9--9--9--8-----8-----8--8--8--9-----9-----9--9--9--9--9--
D|--9-----9-----9--9--9--9-----9-----9-----9--9--9--9-----9-----9--9--9--9-----9-----9--9--9--9--9--
A|--9-----9-----9--9--9--7-----7-----7-----7--7--7--9-----9-----9--9--9--7-----7-----7--7--7--7--7--
E|--7-----7-----7--7--7-----------------------------7-----7-----7--7--7-----------------------------

   A    Aadd9 A    Aadd9 A  D5      F#m    E    
E|-----------------------------------9-----7--------
B|-----------------------------------10----9--------
G|--6--6--6--6--6--6--6--6--7--7-----11----9--------
D|--7--7--9--7--7--7--9--7--7--7-----11----9--------
A|--7--7--7--7--7--7--7--7--5--5-----9-----7--------
E|--5--5--5--5--5--5--5--5--------------------------
   A    Aadd9 A    Aadd9 A  D5      F#m    E  
E|-----------------------------------9-----7--------
B|-----------------------------------10----9--------
G|--6--6--6--6--6--6--6--6--7--7-----11----9--------
D|--7--7--9--7--7--7--9--7--7--7-----11----9--------
A|--7--7--7--7--7--7--7--7--5--5-----9-----7--------
E|--5--5--5--5--5--5--5--5--------------------------
    B                    E                          B                    E            
E|--7-----7-----7--7--7--7-----7-----7-----7--7--7--7-----7-----7--7--7--7--------------------------------------------
B|--7-----7-----7--7--7--9-----9-----9-----9--9--9--7-----7-----7--7--7--9--------------------------------------------
G|--8-----8-----8--8--8--9-----9-----9-----9--9--9--8-----8-----8--8--8--9--------------------------------------------
D|--9-----9-----9--9--9--9-----9-----9-----9--9--9--9-----9-----9--9--9--9--------------------------------------------
A|--9-----9-----9--9--9--7-----7-----7-----7--7--7--9-----9-----9--9--9--7--------------------------------------------
E|--7-----7-----7--7--7-----------------------------7-----7-----7--7--7-----------------------------------------------



E|-----x-----x-----------x-----x-----x-----
B|-----x-----x-----------x-----x-----x-----
G|-----x-----x-----11----x-----x-----x--11-
D|-----x-----x-----------x-----x-----x-----
A|-----x-----x-----------x-----x-----x-----
E|-----x-----x-----------x-----x-----x-----




















tabs and chords, guitar tabs, music transcription, music technology, deep learning, music information retrieval, transcribe into tabs & chords, chordify, music renditions, songsterr, reverbnation, tabulature, bollywood chords, ultimate guitar, yousician, guitar lessons, acoustic guitar, electric guitar, guitar tuner, 911 tabs