Guitar Tabs for Monaco - Public Access T.v.

(/) Slide Up  (\) Slide Down  (h) Hammer On  (p) Pull Off  (b) Bend (r) Release (v) Vibrato (x) Muted

Tabs for Song : 
BPM : 290

Public Access T.V. - Monaco
Guitar 1 - rhythm - John Eatherly

Part A: (Main Riff)
 
    F           Gm                                  F           Gm
E|--1-----1-----3--3--------------------------------1-----1-----3--3--------------------------------
B|--1-----1-----3--3--------------------------------1-----1-----3--3--------------------------------
G|--2-----2-----3--3--------------------------------2-----2-----3--3--------------------------------
D|--------------------------------------------------------------------------------------------------
A|--------------------------------------------------------------------------------------------------
E|--------------------------------------------------------------------------------------------------

   Bb           F                                   F           Gm
E|--1-----1-----1--1--------------------------------1-----1-----3--3--------------------------------
B|--3-----3-----1--1--------------------------------1-----1-----3--3--------------------------------
G|--3-----3-----2--2--------------------------------2-----2-----3--3--------------------------------
D|--------------------------------------------------------------------------------------------------
A|--------------------------------------------------------------------------------------------------
E|--------------------------------------------------------------------------------------------------

Part B: 
   Cm                       Dm                      D#
E|--3-----------------------5-----------------------6--------------------------
B|--4-----------------------6-----------------------8--------------------------
G|--5-----------------------7-----------------------8--------------------------
D|--5-----------------------7-----------------------8--------------------------
A|--3-----------------------5-----------------------6--------------------------
E|-----------------------------------------------------------------------------

Part C: (pre chorus)

    Bb          F          Gm                       Bb          F           Gm
E|--6--6--6-----1--1--1--1--3--3--------------------6--6--6-----1--1--1--1--3--3--------------------
B|--6--6--6-----1--1--1--1--3--3--------------------6--6--6-----1--1--1--1--3--3--------------------
G|--7--7--7-----2--2--2--2--3--3--------------------7--7--7-----2--2--2--2--3--3--------------------
D|--8--8--8-----3--3--3--3--5--5--------------------8--8--8-----3--3--3--3--5--5--------------------
A|--8--8--8-----3--3--3--3--5--5--------------------8--8--8-----3--3--3--3--5--5--------------------
E|--6--6--6-----1--1--1--1--3--3--------------------6--6--6-----1--1--1--1--3--3--------------------

    Bb          F           Gm                      Bb          F           Gm
E|--6--6--6-----1--1--1--1--3--3--------------------6--6--6-----1--1--1--1--3--3--------------
B|--6--6--6-----1--1--1--1--3--3--------------------6--6--6-----1--1--1--1--3--3--------------
G|--7--7--7-----2--2--2--2--3--3--------------------7--7--7-----2--2--2--2--3--3--------------
D|--8--8--8-----3--3--3--3--5--5--------------------8--8--8-----3--3--3--3--5--5--------------
A|--8--8--8-----3--3--3--3--5--5--------------------8--8--8-----3--3--3--3--5--5--------------
E|--6--6--6-----1--1--1--1--3--3--------------------6--6--6-----1--1--1--1--3--3--------------

    Gm
E|--3-----3--------------------------
B|--3-----3--------------------------
G|--3-----3--------------------------
D|--5-----5--------------------------
A|--5-----5--------------------------
E|--3-----3--------------------------


Chorus:

   Bb                       D#                      G                       D#
E|--6-----6--6-----6--6--6--6-----6--6-----6--6--6--10----10-10----10-10-10-6-----6--6-----6--6--6--
B|--6-----6--6-----6--6--6--8-----8--8-----8--8--8--11----11-11----11-11-11-8-----8--8-----8--8--8--
G|--7-----7--7-----7--7--7--8-----8--8-----8--8--8--12----12-12----12-12-12-8-----8--8-----8--8--8--
D|--8-----8--8-----8--8--8--8-----8--8-----8--8--8--12----12-12----12-12-12-8-----8--8-----8--8--8--
A|--8-----8--8-----8--8--8--6-----6--6-----6--6--6--10----10-10----10-10-10-6-----6--6-----6--6--6--
E|--6-----6--6-----6--6--6--------------------------------------------------------------------------
  
   Bb                       D#                      G                       F
E|--6-----6--6-----6--6--6--6-----6--6-----6--6--6--10----10-10----10-10-10-8-----8--8-----8--8--8--8--------------
B|--6-----6--6-----6--6--6--8-----8--8-----8--8--8--11----11-11----11-11-11-10----10-10----10-10-10-10-------------
G|--7-----7--7-----7--7--7--8-----8--8-----8--8--8--12----12-12----12-12-12-10----10-10----10-10-10-10-------------
D|--8-----8--8-----8--8--8--8-----8--8-----8--8--8--12----12-12----12-12-12-10----10-10----10-10-10-10-------------
A|--8-----8--8-----8--8--8--6-----6--6-----6--6--6--10----10-10----10-10-10-8-----8--8-----8--8--8--8--------------
E|--6-----6--6-----6--6--6-----------------------------------------------------------------------------------------

Part A: (Main Riff) Variation

    F           Gm                                  F           Gm
E|--1-----1-----3--3-----x-----------x-----------x--1-----1-----3--3-----x-----------x-----------x--
B|--1-----1-----3--3-----x-----------x-----------x--1-----1-----3--3-----x-----------x-----------x--
G|--2-----2-----3--3-----x-----------x-----------x--2-----2-----3--3-----x-----------x-----------x--
D|-----------------------x-----------x-----------x-----------------------x-----------x-----------x--
A|-----------------------x-----------x-----------x-----------------------x-----------x-----------x--
E|-----------------------x-----------x-----------x-----------------------x-----------x-----------x--

    Bb          F                                   F           Gm
E|--1-----1-----1--1-----x-----------x-----------x--1-----1-----3--3-----x-----------x-----x--------------------
B|--3-----3-----1--1-----x-----------x-----------x--1-----1-----3--3-----x-----------x-----x--------------------
G|--3-----3-----2--2-----x-----------x-----------x--2-----2-----3--3-----x-----------x-----x--------------------
D|-----------------------x-----------x-----------x-----------------------x-----------x-----x--------------------
A|-----------------------x-----------x-----------x-----------------------x-----------x-----x--------------------
E|-----------------------x-----------x-----------x-----------------------x-----------x-----x--------------------


Part B: 
   Cm                     Dm                         D#
E|--3-----------------------5-----------------------6--------------------------
B|--4-----------------------6-----------------------8--------------------------
G|--5-----------------------7-----------------------8--------------------------
D|--5-----------------------7-----------------------8--------------------------
A|--3-----------------------5-----------------------6--------------------------
E|-----------------------------------------------------------------------------

Part C: (pre chorus)

    Bb          F          Gm                       Bb          F           Gm
E|--6--6--6-----1--1--1--1--3--3--------------------6--6--6-----1--1--1--1--3--3--------------------
B|--6--6--6-----1--1--1--1--3--3--------------------6--6--6-----1--1--1--1--3--3--------------------
G|--7--7--7-----2--2--2--2--3--3--------------------7--7--7-----2--2--2--2--3--3--------------------
D|--8--8--8-----3--3--3--3--5--5--------------------8--8--8-----3--3--3--3--5--5--------------------
A|--8--8--8-----3--3--3--3--5--5--------------------8--8--8-----3--3--3--3--5--5--------------------
E|--6--6--6-----1--1--1--1--3--3--------------------6--6--6-----1--1--1--1--3--3--------------------

    Bb          F           Gm                      Bb          F           Gm
E|--6--6--6-----1--1--1--1--3--3--------------------6--6--6-----1--1--1--1--3--3--------------
B|--6--6--6-----1--1--1--1--3--3--------------------6--6--6-----1--1--1--1--3--3--------------
G|--7--7--7-----2--2--2--2--3--3--------------------7--7--7-----2--2--2--2--3--3--------------
D|--8--8--8-----3--3--3--3--5--5--------------------8--8--8-----3--3--3--3--5--5--------------
A|--8--8--8-----3--3--3--3--5--5--------------------8--8--8-----3--3--3--3--5--5--------------
E|--6--6--6-----1--1--1--1--3--3--------------------6--6--6-----1--1--1--1--3--3--------------

    Gm
E|--3-----3--------------------------
B|--3-----3--------------------------
G|--3-----3--------------------------
D|--5-----5--------------------------
A|--5-----5--------------------------
E|--3-----3--------------------------


Chorus:

   Bb                       D#                      G                       D#
E|--6-----6--6-----6--6--6--6-----6--6-----6--6--6--10----10-10----10-10-10-6-----6--6-----6--6--6--
B|--6-----6--6-----6--6--6--8-----8--8-----8--8--8--11----11-11----11-11-11-8-----8--8-----8--8--8--
G|--7-----7--7-----7--7--7--8-----8--8-----8--8--8--12----12-12----12-12-12-8-----8--8-----8--8--8--
D|--8-----8--8-----8--8--8--8-----8--8-----8--8--8--12----12-12----12-12-12-8-----8--8-----8--8--8--
A|--8-----8--8-----8--8--8--6-----6--6-----6--6--6--10----10-10----10-10-10-6-----6--6-----6--6--6--
E|--6-----6--6-----6--6--6--------------------------------------------------------------------------
  
   Bb                       D#                      G                       F
E|--6-----6--6-----6--6--6--6-----6--6-----6--6--6--10----10-10----10-10-10-8-----8--8-----8--8--8--8--------------
B|--6-----6--6-----6--6--6--8-----8--8-----8--8--8--11----11-11----11-11-11-10----10-10----10-10-10-10-------------
G|--7-----7--7-----7--7--7--8-----8--8-----8--8--8--12----12-12----12-12-12-10----10-10----10-10-10-10-------------
D|--8-----8--8-----8--8--8--8-----8--8-----8--8--8--12----12-12----12-12-12-10----10-10----10-10-10-10-------------
A|--8-----8--8-----8--8--8--6-----6--6-----6--6--6--10----10-10----10-10-10-8-----8--8-----8--8--8--8--------------
E|--6-----6--6-----6--6--6-----------------------------------------------------------------------------------------

Solo:

    F           Gm                                  F           Gm
E|--1-----1-----3--3-----x-----------x-----------x--1-----1-----3--3-----x-----------x-----------x--
B|--1-----1-----3--3-----x-----------x-----------x--1-----1-----3--3-----x-----------x-----------x--
G|--2-----2-----3--3-----x-----------x-----------x--2-----2-----3--3-----x-----------x-----------x--
D|-----------------------x-----------x-----------x-----------------------x-----------x-----------x--
A|-----------------------x-----------x-----------x-----------------------x-----------x-----------x--
E|-----------------------x-----------x-----------x-----------------------x-----------x-----------x--

    Bb          F                                   F           Gm
E|--1-----1-----1--1-----x-----------x-----------x--1-----1-----3--3-----x-----------x-----x--------------------
B|--3-----3-----1--1-----x-----------x-----------x--1-----1-----3--3-----x-----------x-----x--------------------
G|--3-----3-----2--2-----x-----------x-----------x--2-----2-----3--3-----x-----------x-----x--------------------
D|-----------------------x-----------x-----------x-----------------------x-----------x-----x--------------------
A|-----------------------x-----------x-----------x-----------------------x-----------x-----x--------------------
E|-----------------------x-----------x-----------x-----------------------x-----------x-----x--------------------


   Cm                      Dm                       D#
E|--3-----------------------5-----------------------6--------------------------
B|--4-----------------------6-----------------------8--------------------------
G|--5-----------------------7-----------------------8--------------------------
D|--5-----------------------7-----------------------8--------------------------
A|--3-----------------------5-----------------------6--------------------------
E|-----------------------------------------------------------------------------

Part C: (pre chorus)

    Bb          F          Gm                       Bb          F           Gm
E|--6--6--6-----1--1--1--1--3--3--------------------6--6--6-----1--1--1--1--3--3--------------------
B|--6--6--6-----1--1--1--1--3--3--------------------6--6--6-----1--1--1--1--3--3--------------------
G|--7--7--7-----2--2--2--2--3--3--------------------7--7--7-----2--2--2--2--3--3--------------------
D|--8--8--8-----3--3--3--3--5--5--------------------8--8--8-----3--3--3--3--5--5--------------------
A|--8--8--8-----3--3--3--3--5--5--------------------8--8--8-----3--3--3--3--5--5--------------------
E|--6--6--6-----1--1--1--1--3--3--------------------6--6--6-----1--1--1--1--3--3--------------------

    Bb          F           Gm                      Bb          F           Gm
E|--6--6--6-----1--1--1--1--3--3--------------------6--6--6-----1--1--1--1--3--3--------------
B|--6--6--6-----1--1--1--1--3--3--------------------6--6--6-----1--1--1--1--3--3--------------
G|--7--7--7-----2--2--2--2--3--3--------------------7--7--7-----2--2--2--2--3--3--------------
D|--8--8--8-----3--3--3--3--5--5--------------------8--8--8-----3--3--3--3--5--5--------------
A|--8--8--8-----3--3--3--3--5--5--------------------8--8--8-----3--3--3--3--5--5--------------
E|--6--6--6-----1--1--1--1--3--3--------------------6--6--6-----1--1--1--1--3--3--------------

    Gm
E|--3-----3--------------------------
B|--3-----3--------------------------
G|--3-----3--------------------------
D|--5-----5--------------------------
A|--5-----5--------------------------
E|--3-----3--------------------------



Final Chorus:

   Bb                       D#                      G                       D#
E|--6-----6--6-----6--6--6--6-----6--6-----6--6--6--10----10-10----10-10-10-6-----6--6-----6--6--6--
B|--6-----6--6-----6--6--6--8-----8--8-----8--8--8--11----11-11----11-11-11-8-----8--8-----8--8--8--
G|--7-----7--7-----7--7--7--8-----8--8-----8--8--8--12----12-12----12-12-12-8-----8--8-----8--8--8--
D|--8-----8--8-----8--8--8--8-----8--8-----8--8--8--12----12-12----12-12-12-8-----8--8-----8--8--8--
A|--8-----8--8-----8--8--8--6-----6--6-----6--6--6--10----10-10----10-10-10-6-----6--6-----6--6--6--
E|--6-----6--6-----6--6--6--------------------------------------------------------------------------
  
   Bb                       D#                      G                       D#
E|--6-----6--6-----6--6--6--6-----6--6-----6--6--6--10----10-10----10-10-10-6-----6--6-----6--6--6--
B|--6-----6--6-----6--6--6--8-----8--8-----8--8--8--11----11-11----11-11-11-8-----8--8-----8--8--8--
G|--7-----7--7-----7--7--7--8-----8--8-----8--8--8--12----12-12----12-12-12-8-----8--8-----8--8--8--
D|--8-----8--8-----8--8--8--8-----8--8-----8--8--8--12----12-12----12-12-12-8-----8--8-----8--8--8--
A|--8-----8--8-----8--8--8--6-----6--6-----6--6--6--10----10-10----10-10-10-6-----6--6-----6--6--6--
E|--6-----6--6-----6--6--6--------------------------------------------------------------------------
  
  
   Bb                       D#                      G                       D#
E|--6-----6--6-----6--6--6--6-----6--6-----6--6--6--10----10-10----10-10-10-6-----6--6-----6--6--6--
B|--6-----6--6-----6--6--6--8-----8--8-----8--8--8--11----11-11----11-11-11-8-----8--8-----8--8--8--
G|--7-----7--7-----7--7--7--8-----8--8-----8--8--8--12----12-12----12-12-12-8-----8--8-----8--8--8--
D|--8-----8--8-----8--8--8--8-----8--8-----8--8--8--12----12-12----12-12-12-8-----8--8-----8--8--8--
A|--8-----8--8-----8--8--8--6-----6--6-----6--6--6--10----10-10----10-10-10-6-----6--6-----6--6--6--
E|--6-----6--6-----6--6--6--------------------------------------------------------------------------
  
  
   Bb                       D#                      G                       F
E|--6-----6--6-----6--6--6--6-----6--6-----6--6--6--10----10-10----10-10-10-8-----8--8-----8--8--8--8--------
B|--6-----6--6-----6--6--6--8-----8--8-----8--8--8--11----11-11----11-11-11-10----10-10----10-10-10-10-------
G|--7-----7--7-----7--7--7--8-----8--8-----8--8--8--12----12-12----12-12-12-10----10-10----10-10-10-10-------
D|--8-----8--8-----8--8--8--8-----8--8-----8--8--8--12----12-12----12-12-12-10----10-10----10-10-10-10-------
A|--8-----8--8-----8--8--8--6-----6--6-----6--6--6--10----10-10----10-10-10-8-----8--8-----8--8--8--8--------
E|--6-----6--6-----6--6--6-----------------------------------------------------------------------------------


Final:
    F           Gm                                     
E|--1-----1-----3--3--
B|--1-----1-----3--3--
G|--2-----2-----3--3--
D|--------------------
A|--------------------
E|--------------------

Guitar Tabs for Monaco - Public Access T.v.





Public Access T.V - Monaco
Guitar 2 - Lead - Xan Aird

Just Follow along with the first guitar for the parts I haven't transcribed


E|--
B|--
G|--
D|--
A|--
E|--


E|--
B|--
G|--
D|--
A|--
E|--



E|--
B|--
G|--
D|--
A|--
E|--




E|--
B|--
G|--
D|--
A|--
E|--


E|--
B|--
G|--
D|--
A|--
E|--


E|--
B|--
G|--
D|--
A|--
E|--


Chorus 1: Arpeggios 


E|--6--------6--------------6--------6--------------10-------10-------------6--------6--------------
B|--6--------------6--------8--------------8--------11-------------11-------8--------------8--------
G|--7-----------------7-----8-----------------8-----12----------------12----8-----------------8-----
D|--8-----8--------------8--8-----8--------------8--12----12-------------12-8-----8--------------8--
A|--8-----------------------6-----------------------10----------------------6-----------------------
E|--6-----------------------------------------------------------------------------------------------


E|--6--------6--------------6--------6--------------10-------10-------------8--------8-----------------
B|--6--------------6--------8--------------8--------11-------------11-------10-------------10----------
G|--7-----------------7-----8-----------------8-----12----------------12----10----------------10----10-
D|--8-----8--------------8--8-----8--------------8--12----12-------------12-10----10-------------10----
A|--8-----------------------6-----------------------10----------------------8--------------------------
E|--6--------------------------------------------------------------------------------------------------




B|--
G|--
D|--
A|--
E|--



E|--
B|--
G|--
D|--
A|--
E|--




E|--
B|--
G|--
D|--
A|--
E|--

Pre Chorus 2: Octaves
 

E|--------------------------------------------------------------------------------------------------
B|-----------------------11----11----11----11----11----11----11----11----11----11----11----11----11-
G|-----------------------x-----x-----x-----x-----x-----x-----x-----x-----x-----x-----x-----x-----x-- 
D|-----------------------8-----8-----8-----8-----8-----8-----8-----8-----8-----8-----8-----8-----8--
A|--------------------------------------------------------------------------------------------------
E|--------------------------------------------------------------------------------------------------


E|--------------------------------------------------------------------------------
B|-----11----11----11----11----11----11----11----11----11----11----11----11----11-
G|-----x-----x-----x-----x-----x-----x-----x-----x-----x-----x-----x-----x-----x--
D|-----8-----8-----8-----8-----8-----8-----8-----8-----8-----8-----8-----8-----8--
A|--------------------------------------------------------------------------------
E|--------------------------------------------------------------------------------


E|--
B|--
G|--
D|--
A|--
E|--


Chorus 2: Chorus riff


E|-----6-----8-----6--------------6-----8-----6-----------6-----8-----6-----11----10----8-----6--------
B|-----------------------------------------------------------------------------------------------------
G|-----------------------------------------------------------------------------------------------------
D|-----------------------------------------------------------------------------------------------------
A|-----------------------------------------------------------------------------------------------------
E|-----------------------------------------------------------------------------------------------------


E|-----6-----8-----6--------------6-----8-----6-----------6-----8-----6-----11----10----8-----6-----8-----
B|--------------------------------------------------------------------------------------------------------
G|--------------------------------------------------------------------------------------------------------
D|--------------------------------------------------------------------------------------------------------
A|--------------------------------------------------------------------------------------------------------
E|--------------------------------------------------------------------------------------------------------

Solo: (the solo doesn't sound great when played back from this website, but its still right.)


E|-----------------------------------------------------------------------------------------------
B|-----------------------------------------------------------------------------------------------
G|------------------------5b6---5b-6p5------5b6--------------------------------------3------5b6--
D|--------------------------------------5---------------------------------3h5---3h5--------------
A|-----------------------------------------------------------------------------------------------
E|-----------------------------------------------------------------------------------------------


E|--------------------6--3-----------------------------------------------------------------------------------------
B|---------------------------6p3-----------------------------------------------------------------------3-----4---4/
G|--------------------------------5--3-----3---5b6--------------------------3---------5b6--------------------------
D|--------------------------------------5------------------------------3h5------3h5--------5-----------------------
A|-----------------------------------------------------------------------------------------------------------------
E|-----------------------------------------------------------------------------------------------------------------



E|-----------------------------------------------------
B|--6-----4-----3-----4-----3-----1-----------1--------
G|--------------------------------------3-----------3--
D|-----------------------------------------------------
A|-----------------------------------------------------
E|-----------------------------------------------------




E|--------------------------------------------------------------------------------------------------
B|-----------------------11----11----11----11----11----11----11----11----11----11----11----11----11-
G|-----------------------x-----x-----x-----x-----x-----x-----x-----x-----x-----x-----x-----x-----x-- 
D|-----------------------8-----8-----8-----8-----8-----8-----8-----8-----8-----8-----8-----8-----8--
A|--------------------------------------------------------------------------------------------------
E|--------------------------------------------------------------------------------------------------


E|--------------------------------------------------------------------------------
B|-----11----11----11----11----11----11----11----11----11----11----11----11----11-
G|-----x-----x-----x-----x-----x-----x-----x-----x-----x-----x-----x-----x-----x--
D|-----8-----8-----8-----8-----8-----8-----8-----8-----8-----8-----8-----8-----8--
A|--------------------------------------------------------------------------------
E|--------------------------------------------------------------------------------














E|-----6-----8-----6--------------6-----8-----6-----------6-----8-----6-----11----10----8-----6--------
B|-----------------------------------------------------------------------------------------------------
G|-----------------------------------------------------------------------------------------------------
D|-----------------------------------------------------------------------------------------------------
A|-----------------------------------------------------------------------------------------------------
E|-----------------------------------------------------------------------------------------------------


E|-----6-----8-----6--------------6-----8-----6-----------6-----8-----6-----11----10----8-----6--------
B|-----------------------------------------------------------------------------------------------------
G|-----------------------------------------------------------------------------------------------------
D|-----------------------------------------------------------------------------------------------------
A|-----------------------------------------------------------------------------------------------------
E|-----------------------------------------------------------------------------------------------------



E|-----6-----8-----6--------------6-----8-----6-----------6-----8-----6-----11----10----8-----6--------
B|-----------------------------------------------------------------------------------------------------
G|-----------------------------------------------------------------------------------------------------
D|-----------------------------------------------------------------------------------------------------
A|-----------------------------------------------------------------------------------------------------
E|-----------------------------------------------------------------------------------------------------



E|-----6-----8-----6--------------6-----8-----6-----------6-----8-----6-----11----10----8-----6-----8-----
B|--------------------------------------------------------------------------------------------------------
G|--------------------------------------------------------------------------------------------------------
D|--------------------------------------------------------------------------------------------------------
A|--------------------------------------------------------------------------------------------------------
E|--------------------------------------------------------------------------------------------------------
tabs and chords, guitar tabs, music transcription, music technology, deep learning, music information retrieval, transcribe into tabs & chords, chordify, music renditions, songsterr, reverbnation, tabulature, bollywood chords, ultimate guitar, yousician, guitar lessons, acoustic guitar, electric guitar, guitar tuner, 911 tabs