Guitar Tabs for On Location - Public Access T.v.

(/) Slide Up  (\) Slide Down  (h) Hammer On  (p) Pull Off  (b) Bend (r) Release (v) Vibrato (x) Muted

Tabs for Song : 
BPM : 200

Intro Riff (guitar 1)
E|--------2--------------------2-----------------------2--------------------2-----------
B|-----3-----0--------------3-----0-----------------3-----0--------------3-----0--------
G|--2--------------------2--------------2--------2--------------------2--------------2--
D|--------------------------------------------------------------------------------------
A|--------------------------------------------------------------------------------------
E|--------------------------------------------------------------------------------------

Verse: 
Chords: D , D6, G, G6
E|--2--2--2--2--2--2--2--2--2--2--2--2--2--2--2--2--
B|--3--3--3--0--0--0--0--0--3--3--3--0--0--0--0--0--
G|--2--2--2--2--2--2--2--2--2--2--2--2--2--2--2--2--
D|--0--0--0--0--0--0--0--0--0--0--0--0--0--0--0--0--
A|--------------------------------------------------
E|--------------------------------------------------

E|--2--2--2--2--2--2--2--2--2--2--2--2--2--2--2--2--
B|--3--3--3--0--0--0--0--0--3--3--3--0--0--0--0--0--
G|--2--2--2--2--2--2--2--2--2--2--2--2--2--2--2--2--
D|--0--0--0--0--0--0--0--0--0--0--0--0--0--0--0--0--
A|--------------------------------------------------
E|--------------------------------------------------


E|--3--3--3--0--0--0--0--0--3--3--3--0--0--0--0--0--
B|--3--3--3--0--0--0--0--0--3--3--3--0--0--0--0--0--
G|--4--4--4--4--4--4--4--4--4--4--4--4--4--4--4--4--
D|--5--5--5--5--5--5--5--5--5--5--5--5--5--5--5--5--
A|--5--5--5--5--5--5--5--5--5--5--5--5--5--5--5--5--
E|--3--3--3--3--3--3--3--3--3--3--3--3--3--3--3--3--


E|--2--2--2--2--2--2--2--2--2--2--2--2--2--2--2--2--
B|--3--3--3--0--0--0--0--0--3--3--3--0--0--0--0--0--
G|--2--2--2--2--2--2--2--2--2--2--2--2--2--2--2--2--
D|--0--0--0--0--0--0--0--0--0--0--0--0--0--0--0--0--
A|--------------------------------------------------
E|--------------------------------------------------

E|--2--2--2--2--2--2--2--2--2--2--2--2--2--2--2--2--
B|--3--3--3--0--0--0--0--0--3--3--3--0--0--0--0--0--
G|--2--2--2--2--2--2--2--2--2--2--2--2--2--2--2--2--
D|--0--0--0--0--0--0--0--0--0--0--0--0--0--0--0--0--
A|--------------------------------------------------
E|--------------------------------------------------

E|--2--2--2--2--2--2--2--2--2--2--2--2--2--2--2--2--
B|--3--3--3--0--0--0--0--0--3--3--3--0--0--0--0--0--
G|--2--2--2--2--2--2--2--2--2--2--2--2--2--2--2--2--
D|--0--0--0--0--0--0--0--0--0--0--0--0--0--0--0--0--
A|--------------------------------------------------
E|--------------------------------------------------


E|--3--3--3--0--0--0--0--0--3--3--3--0--0--0--0--0--
B|--3--3--3--0--0--0--0--0--3--3--3--0--0--0--0--0--
G|--4--4--4--4--4--4--4--4--4--4--4--4--4--4--4--4--
D|--5--5--5--5--5--5--5--5--5--5--5--5--5--5--5--5--
A|--5--5--5--5--5--5--5--5--5--5--5--5--5--5--5--5--
E|--3--3--3--3--3--3--3--3--3--3--3--3--3--3--3--3--


E|--2--2--2--2--2--2--2--2--2--2--2--2--2--2--2--2--
B|--3--3--3--0--0--0--0--0--3--3--3--0--0--0--0--0--
G|--2--2--2--2--2--2--2--2--2--2--2--2--2--2--2--2--
D|--0--0--0--0--0--0--0--0--0--0--0--0--0--0--0--0--
A|--------------------------------------------------
E|--------------------------------------------------




Pre Chorus
Chords: A, G, and two weird ones (don't know their name)
E|--5-----5--5--5--5--5--5--3-----3-----2--0-----
B|--5-----5--5--5--5--5--5--3-----3-----3--3-----
G|--6-----6--6--6--6--6--6--4-----4-----4--4-----
D|--7-----7--7--7--7--7--7--5-----5-----5--5-----
A|--7-----7--7--7--7--7--7--5-----5--------------
E|--5-----5--5--5--5--5--5--3-----3--------------

E|--5-----5--5--5--5--5--5--3-----3-----2--0-----
B|--5-----5--5--5--5--5--5--3-----3-----3--3-----
G|--6-----6--6--6--6--6--6--4-----4-----4--4-----
D|--7-----7--7--7--7--7--7--5-----5-----5--5-----
A|--7-----7--7--7--7--7--7--5-----5--------------
E|--5-----5--5--5--5--5--5--3-----3--------------


E|--5-----5--5--5--5--5--5--3-----3-----2--0-----
B|--5-----5--5--5--5--5--5--3-----3-----3--3-----
G|--6-----6--6--6--6--6--6--4-----4-----4--4-----
D|--7-----7--7--7--7--7--7--5-----5-----5--5-----
A|--7-----7--7--7--7--7--7--5-----5--------------
E|--5-----5--5--5--5--5--5--3-----3--------------

E|--5-----5--5--5--5--5--5--3-----3-----2--0-----------3-----2--0--
B|--5-----5--5--5--5--5--5--3-----3-----3--3-----------3-----3--3--
G|--6-----6--6--6--6--6--6--4-----4-----4--4-----------4-----4--4--
D|--7-----7--7--7--7--7--7--5-----5-----5--5-----------5-----5--5--
A|--7-----7--7--7--7--7--7--5-----5--------------------5-----------
E|--5-----5--5--5--5--5--5--3-----3--------------------3-----------


Chorus:
Chords: D, A, G
E|--2--2--2--2--2--2--2--2--2--2--2--2--2--2--2--2--0--0--0--0--0--0--0--0--0--0--0--0--0--0--0--0--
B|--3--3--3--3--3--3--3--3--3--3--3--3--3--3--3--3--2--2--2--2--2--2--2--2--2--2--2--2--2--2--2--2--
G|--2--2--2--2--2--2--2--2--2--2--2--2--2--2--2--2--2--2--2--2--2--2--2--2--2--2--2--2--2--2--2--2--
D|--0--0--0--0--0--0--0--0--0--0--0--0--0--0--0--0--2--2--2--2--2--2--2--2--2--2--2--2--2--2--2--2--
A|--------------------------------------------------0--0--0--0--0--0--0--0--0--0--0--0--0--0--0--0--
E|--------------------------------------------------------------------------------------------------


E|--2--2--2--2--2--2--2--2--2--2--2--2--2--2--2--2--0--0--0--0--0--0--0--0--0--0--0--0--0--0--0--0--
B|--3--3--3--3--3--3--3--3--3--3--3--3--3--3--3--3--2--2--2--2--2--2--2--2--2--2--2--2--2--2--2--2--
G|--2--2--2--2--2--2--2--2--2--2--2--2--2--2--2--2--2--2--2--2--2--2--2--2--2--2--2--2--2--2--2--2--
D|--0--0--0--0--0--0--0--0--0--0--0--0--0--0--0--0--2--2--2--2--2--2--2--2--2--2--2--2--2--2--2--2--
A|--------------------------------------------------0--0--0--0--0--0--0--0--0--0--0--0--0--0--0--0--
E|--------------------------------------------------------------------------------------------------

E|--3--3--3--3--3--3--3--3--3--3--3--3--3--3--
B|--3--3--3--3--3--3--3--3--3--3--3--3--3--3--
G|--4--4--4--4--4--4--4--4--4--4--4--4--4--4--
D|--5--5--5--5--5--5--5--5--5--5--5--5--5--5--
A|--5--5--5--5--5--5--5--5--5--5--5--5--5--5--
E|--3--3--3--3--3--3--3--3--3--3--3--3--3--3--

Breakdown (D and G again)

E|--14-------14-------------14-------14----------3--------3--------------3--------3--
B|--15-------15-------------15-------15----------3--------3--------------3--------3--
G|--14-------14-------------14-------14----------4--------4--------------4--------4--
D|-----------------------------------------------------------------------------------
A|-----------------------------------------------------------------------------------
E|-----------------------------------------------------------------------------------


E|--14-14----14----------14-14----17-14-14-------3--------3--------------3--
B|--15-15----15----------15-15----15-15-15-------3--------3--------------5--
G|--14-14----14----------14-14----14-14-14-------4--------4--------------4--
D|--------------------------------------------------------------------------
A|--------------------------------------------------------------------------
E|--------------------------------------------------------------------------

E|--10-10-10-10-10-10-10-10-10-10-10-10-10-10-10-10-3--3--3--3--3--3--3--3--3--3--3--3--3--3--3--3--
B|--10-10-10-10-10-10-10-10-10-10-10-10-10-10-10-10-3--3--3--3--3--3--3--3--3--3--3--3--3--3--3--3--
G|--11-11-11-11-11-11-11-11-11-11-11-11-11-11-11-11-4--4--4--4--4--4--4--4--4--4--4--4--4--4--4--4--
D|--12-12-12-12-12-12-12-12-12-12-12-12-12-12-12-12-5--5--5--5--5--5--5--5--5--5--5--5--5--5--5--5--
A|--12-12-12-12-12-12-12-12-12-12-12-12-12-12-12-12-5--5--5--5--5--5--5--5--5--5--5--5--5--5--5--5--
E|--10-10-10-10-10-10-10-10-10-10-10-10-10-10-10-10-3--3--3--3--3--3--3--3--3--3--3--3--3--3--3--3--

E|--10-10-10-10-10-10-10-10-10-10-10-10-10-10-10-10-3--3--3--3--3--3--3--3--3--3--3--3--3--3--3--3--
B|--10-10-10-10-10-10-10-10-10-10-10-10-10-10-10-10-3--3--3--3--3--3--3--3--3--3--3--3--3--3--3--3--
G|--11-11-11-11-11-11-11-11-11-11-11-11-11-11-11-11-4--4--4--4--4--4--4--4--4--4--4--4--4--4--4--4--
D|--12-12-12-12-12-12-12-12-12-12-12-12-12-12-12-12-5--5--5--5--5--5--5--5--5--5--5--5--5--5--5--5--
A|--12-12-12-12-12-12-12-12-12-12-12-12-12-12-12-12-5--5--5--5--5--5--5--5--5--5--5--5--5--5--5--5--
E|--10-10-10-10-10-10-10-10-10-10-10-10-10-10-10-10-3--3--3--3--3--3--3--3--3--3--3--3--3--3--3--3--

Go back to pre chorus for single version or chorus for album version

Outro: 
Chords: G, A

E|--3--3--3--3--3--3--3--3--3--3--3--3--3--3--3--3--5--5--5--5--5--5--5--5--5--5--5--5--5--5--5--5--
B|--3--3--3--3--3--3--3--3--3--3--3--3--3--3--3--3--5--5--5--5--5--5--5--5--5--5--5--5--5--5--5--5--
G|--4--4--4--4--4--4--4--4--4--4--4--4--4--4--4--4--6--6--6--6--6--6--6--6--6--6--6--6--6--6--6--6--
D|--5--5--5--5--5--5--5--5--5--5--5--5--5--5--5--5--7--7--7--7--7--7--7--7--7--7--7--7--7--7--7--7--
A|--5--5--5--5--5--5--5--5--5--5--5--5--5--5--5--5--7--7--7--7--7--7--7--7--7--7--7--7--7--7--7--7--
E|--3--3--3--3--3--3--3--3--3--3--3--3--3--3--3--3--5--5--5--5--5--5--5--5--5--5--5--5--5--5--5--5--

E|--------2--------------------2-----------------------2--------------------2-----------
B|-----3-----0--------------3-----0-----------------3-----0--------------3-----0--------
G|--2--------------------2--------------2--------2--------------------2--------------2--
D|--------------------------------------------------------------------------------------
A|--------------------------------------------------------------------------------------
E|--------------------------------------------------------------------------------------








Guitar Tabs for On Location - Public Access T.v.





Main Riff (continue playing during verse)
E|--------------------------------------------------------------------------------------
B|--------15-12----------------15-12-------------------15-12----------------15-12-------
G|--11-14----------------11-14----------14-------11-14----------------11-14----------14-
D|--------------------------------------------------------------------------------------
A|--------------------------------------------------------------------------------------
E|--------------------------------------------------------------------------------------




































































E|--------------------------------5-----3--2--------
B|--------------------------------3-----3--3--------
G|--------------------------------------------------
D|--------------------------------------------------
A|--------------------------------------------------
E|--5-----5--5--5--5--5--5--3-----------------------

E|--------------------------------3-----2--0--------
B|--------------------------------3-----3--3--------
G|--------------------------------------------------
D|--------------------------------------------------
A|--------------------------------------------------
E|--5-----5--5--5--5--5--5--3-----------------------


E|--------------------------------5-----3--2--------
B|--------------------------------3-----3--3--------
G|--------------------------------------------------
D|--------------------------------------------------
A|--------------------------------------------------
E|--5-----5--5--5--5--5--5--3-----------------------

E|--------------------------------3-----2--0-----------3-----2--0--
B|--------------------------------3-----3--3-----------3-----3--3--
G|-----------------------------------------------------------------
D|-----------------------------------------------------------------
A|-----------------------------------------------------------------
E|--5-----5--5--5--5--5--5--3--------------------------------------




E|--5--------------5-----5--------------5--5--5--5--5--------------5-----5--------------5--5--
B|--7--------------8-----7--------------7--8--7--8--5--------------7-----5--------------5--7--
G|--7--------------7-----7--------------7--7--7--7--6--------------6-----6--------------6--6--
D|--------------------------------------------------------------------------------------------
A|--------------------------------------------------------------------------------------------
E|--------------------------------------------------------------------------------------------


E|--5--------------5-----5--------------5--5--5--5--5--------------5-----5--------------5--5--
B|--7--------------8-----7--------------7--8--7--8--5--------------7-----5--------------5--7--
G|--7--------------7-----7--------------7--7--7--7--6--------------6-----6--------------6--6--
D|--------------------------------------------------------------------------------------------
A|--------------------------------------------------------------------------------------------
E|--------------------------------------------------------------------------------------------


















E|--------------------------------------------------------------------------------
B|--------------------------------------------------------------------------------
G|--------------------------------------------------------------------------------
D|--12-12----12----------12-12----14-12-12-12----7--------7--------------9--------
A|--------------------------------------------------------------------------------
E|--------------------------------------------------------------------------------

E|--------------------------------------------------------------------------------------------------
B|--------------------------------------------------------------------------------------------------
G|--------------------------------------------------------------------------------------------------
D|--12-12-12-12-12-12-12-12-12-12-12-12-12-12-14/---5--5--5--5--5--5--5--5--5--5--5--5--5--5--5--5--
A|--------------------------------------------------------------------------------------------------
E|--------------------------------------------------------------------------------------------------

E|--------------------------------------------------------------------------------------------------
B|--------------------------------------------------------------------------------------------------
G|--------------------------------------------------------------------------------------------------
D|--12-12-12-12-12-12-12-12-12-12-12-12-12-12-14/---5--5--5--5--5--5--5--5--5--5--5--5--5--5--5--5--
A|--------------------------------------------------------------------------------------------------
E|--------------------------------------------------------------------------------------------------













E|--------------------------------------------------------------------------------------
B|--------15-12----------------15-12-------------------15-12----------------15-12-------
G|--11-14----------------11-14----------14-------11-14----------------11-14----------14-
D|--------------------------------------------------------------------------------------
A|--------------------------------------------------------------------------------------
E|--------------------------------------------------------------------------------------
tabs and chords, guitar tabs, music transcription, music technology, deep learning, music information retrieval, transcribe into tabs & chords, chordify, music renditions, songsterr, reverbnation, tabulature, bollywood chords, ultimate guitar, yousician, guitar lessons, acoustic guitar, electric guitar, guitar tuner, 911 tabs