Guitar Tabs for 1

(/) Slide Up  (\) Slide Down  (h) Hammer On  (p) Pull Off  (b) Bend (r) Release (v) Vibrato (x) Muted

Tabs for Song : 

Song lyrics here
E|--------------------------------------------------------------------------------------------------------------------
B|--------------------------------------------------------------------------------------10----10-10h12p10-12b14r12-12v
G|-----------------------------------------------------11-12-11h12p11-------11h12p11-12-------------------------------
D|-----------------------------9--7---9/12----12-11-12----------------12----------------------------------------------
A|---9h10p9--7---7/9v----9--10----------------------------------------------------------------------------------------
E|--------------------------------------------------------------------------------------------------------------------

E|-----10-12-10-12b14r12----10-12p10-9--10-9-----------------------------------------------------------------------------
B|--12----------------------------------------10/12----10h12p10--8h10p8--7v-----8h10p8---7h-8p7--5v-----5h-7p5-----------
G|--------------------------------------------------------------------------------------------------------------7--6--7--
D|-----------------------------------------------------------------------------------------------------------------------
A|-----------------------------------------------------------------------------------------------------------------------
E|-----------------------------------------------------------------------------------------------------------------------

E|--------------------------------------------------------------
B|--------------------------------------------------------------
G|--7---6/9-----9---7/11----11-12-11h12p11----------------------
D|-----------------------------------------12----12-11h12p11-9--
A|--------------------------------------------------------------
E|--------------------------------------------------------------

E|-----------------------------------------------------------------------------------------
B|--------12----12----------------12----12-------------12----12-------------12----12-------
G|-----------11----11----------------11----11-------------11----11-------------11----11----
D|-----9--------------9--------9--------------9-----9--------------9-----9--------------9--
A|--10-------------------------------------------0-----------------------------------------
E|--------------------------10----------------------------------------0--------------------

Song lyrics here
E|--3--2--------------------------------------------------------------------------------------------------
B|--------3--2--------------------------------------------------------------------------------------------
G|--------------4--2--4v----4--2---4/6--4v-----6h-7p-6p4--6--7-----7--6--7---7b-9r6--7---6h-7p-6p4--6--4--
D|--------------------------------------------------------------------------------------------------------
A|--------------------------------------------------------------------------------------------------------
E|--------------------------------------------------------------------------------------------------------

Paste any tab in acousterr's tab maker and we'll play it !!!
Now supports capo and sound effects for vibrato/pull-off/hammer/bends/mutes etc !!! Checkout help section
tabs and chords, guitar tabs, music transcription, music technology, deep learning, music information retrieval, transcribe into tabs & chords, chordify, music renditions, songsterr, reverbnation, tabulature, bollywood chords, ultimate guitar, yousician, guitar lessons, acoustic guitar, electric guitar, guitar tuner, 911 tabs