Guitar Tabs for 1

(/) Slide Up  (\) Slide Down  (h) Hammer On  (p) Pull Off  (b) Bend (r) Release (v) Vibrato

Tabs for Song : 

Song lyrics here
E|--------------------------------------------------------------------------------------------------
B|--------------------------------------------------------------------------------------------------
G|--------------------------------------------------------------------------------------------------
D|-----0-----0-----0-----0-----4-----4-----4-----4-----0-----0-----0-----0-----0-----0-----0-----0--
A|--------------------------0-----0-----0-----0-----2-----2-----2-----2-----0-----0-----0-----0-----
E|--3-----3-----3-----3-----------------------------------------------------------------------------

E|--2-----------5-----0--2--0-----------------
B|--------3-----------------------------------
G|--------------------------------------------
D|-----0-----------0-----------4-----4-----4--
A|--------------------------0-----0-----0-----
E|--3--------3-----------3--------------------

E|--3-----2--3-----2-----------0--------------------------
B|-----------------------3--------3-----------------------
G|--------------------------------------------------------
D|-----0--------------0--------0-----0-----0-----0-----0--
A|--2-----------2-----------2-----2-----0-----0-----0-----
E|--------------------------------------------------------

E|--2-----------5-----0--2--0-----------------
B|--------3-----------------------------------
G|--------------------------------------------
D|-----0-----------0-----------4-----4-----4--
A|--------------------------0-----0-----0-----
E|--3--------3-----------3--------------------

E|--3-----2--3-----2-----------0--------------0-----
B|-----------------------3--------3-----------------
G|--------------------------------------------------
D|-----0--------------0--------0--------------------
A|--2-----------2-----------2-----2-----------------
E|--------------------------------------------------

E|-----------------------------------------------------------------------------------------------
B|-----7--7--7--7-----7--8--7--7--7--7--7-----7--8--7--7--7--7--7-----7--8--7--7--7--7--7--8--10-
G|--7--------------7-----------------------7-----------------------7-----------------------------
D|-----------------------------------------------------------------------------------------------
A|--------------------------------------------------------------------------5-----5--5-----5--5--
E|--3-----3--3-----3-----3--5-----5--5-----5-----5--7-----7--7-----7-----7-----------------------

E|-----------------------------------------------------------------------------------------0-----0--
B|-----7--7--7--7-----7--8--7--7--7--7--7-----7--8--7--7--7--7--7-----7--8--7--8--10-8--------7-----
G|--7--------------7-----------------------7-----------------------7--------------------7-----------
D|--------------------------------------------------------------------------------------------------
A|--------------------------------------------------------------------------5-----5--5-----5-----5--
E|--3-----3--3-----3-----3--5-----5--5-----5-----5--7-----7--7-----7-----7--------------------------

E|-----------------------------------------------------------------------------------------0-----0--
B|-----7--7--7--7-----7--8--7--7--7--7--7-----7--8--7--7--7--7--7-----7--8--7--8--10-8--------7-----
G|--7--------------7-----------------------7-----------------------7--------------------7-----------
D|--------------------------------------------------------------------------------------------------
A|--------------------------------------------------------------------------5-----5--5-----5-----5--
E|--3-----3--3-----3-----3--5-----5--5-----5-----5--7-----7--7-----7-----7--------------------------

E|-----------------------------------------------------------------------------------------0-----0--
B|-----7--7--7--7-----7--8--7--7--7--7--7-----7--8--7--7--7--7--7-----7--8--7--8--10-8--------7-----
G|--7--------------7-----------------------7-----------------------7--------------------7-----------
D|--------------------------------------------------------------------------------------------------
A|--------------------------------------------------------------------------5-----5--5-----5-----5--
E|--3-----3--3-----3-----3--5-----5--5-----5-----5--7-----7--7-----7-----7--------------------------

E|--------0-----5--------0--------------------
B|-----------------3--------------------------
G|--------------------------------------------
D|-----0-----------0-----0-----4-----4-----4--
A|--------------------------0-----0-----0-----
E|--3--------3--------3-----------------------

E|--0-----2-----3---3p2-----0-----------------------------
B|-----------------------------3--------------------------
G|--------------------------------------------------------
D|-----0--------0--------------0-----0-----0-----0-----0--
A|--2--------2-----------2--------0-----0-----0-----0-----
E|--------------------------------------------------------

E|--------0-----5--------0--------------------
B|-----------------3--------------------------
G|--------------------------------------------
D|-----0-----------0-----0-----4-----4-----4--
A|--------------------------0-----0-----0-----
E|-3---------3--------3-----------------------

E|--0-----2-----3---3p2-----0-----2--3------3p2--0--------
B|-----------------------------3--------------------3-----
G|--------------------------------------------------------
D|-----0--------0--------------0--------0-----------0-----
A|--2--------2-----------2--------0---------0p---------0--
E|--------------------------------------------------------

E|--0-----5-----------0--------------------
B|--------------3--------------------------
G|--------0-----------0-----4--------------
D|--0-----------------------------4--4-----
A|--------------------------5--------------
E|--5-----------------------------5--5-----

E|--2---3p2-----0--------
B|--3--------------3-----
G|-----------------------
D|--------------0--------
A|--2--------------------
E|-----------------------

E|--0--------5-----------0-----------------
B|--------3--------3-----------------------
G|--------0--------0-----------4-----------
D|-----------0-----------0-----------4--4--
A|-----------------------------5-----------
E|--3--------------------------------5--5--

E|--2-----3--2--0-----2--3------3p2--0-----
B|-----------------3--------------------3--
G|-----------------------------------------
D|-----0-----------0--------0-----------0--
A|--2-----------2--------0-----------0-----
E|-----------------------------------------

E|--------------------------0-----0-----0-----------
B|--3-----3-----3-----------------------------3-----
G|--------------------2-----------------------------
D|-----0-----0-----0-----0-----4-----4-----4-----4--
A|--------------------------0-----0-----0-----0-----
E|--3-----3-----3-----3-----------------------------

E|--------------------5-----0-----0-----0-----0-----
B|--3-----3-----3-----------------------------------
G|--------------------------------------------------
D|-----0-----0-----0-----0-----0-----0-----0-----0--
A|--2-----2-----2-----2-----0-----0-----0-----0-----
E|--------------------------------------------------

E|--------0-----5--------0--------------------
B|-----------------3--------------------------
G|--------------------------------------------
D|-----0-----------0-----0-----4-----4-----4--
A|--------------------------0-----0-----0-----
E|--3--------3--------3-----------------------

E|--0-----2-----3------3p2--0-----------------------12----
B|-----------------------------3--------7--8--7-----------
G|-----------------------------------------------------12-
D|-----0--------0------0p------0-----0--------------------
A|--2--------2-----2--------2-----0-----------------------
E|--------------------------------------------------------

Song lyrics here
E|--
B|--
G|--
D|--
A|--
E|--

Add more lines by placing cursor below and adding notes
tabs and chords, guitar tabs, music contests, music covers, songsterr, reverbnation, renditions, tabulature, bollywood chords, ultimate guitar, yousician, guitar lessons, torrins, fender, gibson, acoustic guitar, electric guitar, youtube covers, gootar, guitar tuner, A-Z tabs, 911 tabs