Guitar Tabs for Alone - Marshmello Tabs

(/) Slide Up  (\) Slide Down  (h) Hammer On  (p) Pull Off  (b) Bend (r) Release (v) Vibrato

Tabs for Song : Marshmello Alone

E|-----------------------------------------------------------------------------------------------
B|-----7--7--7--7-----7--8--7--7--7--7--7-----7--8--7--7--7--7--7-----7--8--7--7--7--7--7--8--10-
G|--7--------------7-----------------------7-----------------------7-----------------------------
D|-----------------------------------------------------------------------------------------------
A|--------------------------------------------------------------------------5-----5--5-----5--5--
E|--3-----3--3-----3--3-----5-----5--5-----5-----5--7-----7--7-----7--7--------------------------

E|-----------------------------------------------------------------------------------------0-----0--
B|-----7--7--7--7-----7--8--7--7--7--7--7-----7--8--7--7--7--7--7-----7--8--7--8--10-8--------7-----
G|--7--------------7-----------------------7-----------------------7--------------------7-----------
D|--------------------------------------------------------------------------------------------------
A|--------------------------------------------------------------------------5-----5--5-----5-----5--
E|--3-----3--3-----3-----3--5-----5--5-----5-----5--7-----7--7-----7-----7--------------------------

E|--------------------------
B|-----7--7--7--7-----7--8--
G|--7--------------7--------
D|--------------------------
A|--------------------------
E|--3-----3--3-----3-----3--


tabs and chords, guitar tabs, music transcription, music technology, deep learning, music information retrieval, transcribe into tabs & chords, chordify, music renditions, songsterr, reverbnation, tabulature, bollywood chords, ultimate guitar, yousician, guitar lessons, acoustic guitar, electric guitar, guitar tuner, 911 tabs