Guitar Tabs for ?????? 1?

(/) Slide Up  (\) Slide Down  (h) Hammer On  (p) Pull Off  (b) Bend (r) Release (v) Vibrato (x) Muted

Tabs for Song : 

Song lyrics here
E|-----10-8--------8-----3--------------------------------------------10-8-----6-----------3-----------------
B|--8--------10-11----8-----------3-----------------------------6--8--------10----10-8--6--------------------
G|--0-----------0--------------------5--2--------------5--3--5--------------------------------------5--3--5--
D|-----------------------------5-----------3--------5-----------------------------------0--------5-----------
A|--------------------------5--------------------5-----------------8-----------6--------------5--------------
E|-----------------------3--------------------3--------------------------------------------3-----------------

E|--------------------------8--10-8--6--------6--------------3-----------------------8--10-8--6--------
B|-----------------8--10-11-------------10-6-----10-8--6--------3--------3--8--10-11-------------10-6--
G|-----------5--3-----------------------------------------7--------5--3--------------------------------
D|--------5-----------------------------0--------------0-----5-----------5-----------------------0-----
A|-----5-----------------------6--------------6-----------------------------------------6--------------
E|--3--------------------------------------------------------------------------------------------------

E|--6--------------3-----------------------------------------------------3-----------
B|-----10-8--6-----------------------------------------------------------3-----------
G|--------------7-----------5--3--5--------------------------------------3-----------
D|-----------0-----------5-----------------------------------5--5--5--5--5-----------
A|--------------------5--------------------------5--5--5--5--5--5--5--5--5-----------
E|--6--------------3-----------------3--3--3--3--3--3--3--3--3--3--3--3--3-----------

E|--------------------------------------------------------------------------------------------
B|--------------------------------------------------------------------------------------------
G|-----------2--3--2--3--2--------2--3--2-----2-----------2--3--2--3--2--------2--3--2-----2--
D|--------5-----------------5--------------3-----------5-----------------5--------------3-----
A|-----5-----------------------5--------------------5-----------------------5-----------------
E|--3--------------------------------------------3--------------------------------------------

E|--3-----3--5--6--5--6--5--3-----5--6--5-----5--3-----3--5--6--5--6--5--3-----5--6--5-----5--
B|-----3-----------------------3-----------6--------3-----------------------3-----------6-----
G|--------------------------------------------------------------------------------------------
D|--------------------------------------------------------------------------------------------
A|--------------------------------------------------------------------------------------------
E|--3--------------------------------------------3--------------------------------------------

E|-----------5--6--5--6--5--------5--6--5-----5-----------5--6--5--6--5--3-----5--6--5-----5--
B|--8-----8-----------------8--------------6-----8-----8--------------------3-----------6-----
G|-----7-----------------------7--------------------7-----------------------------------------
D|--------------------------------------------------------------------------------------------
A|--6--------------------------------------------6-----------------------3--------------------
E|--------------------------------------------------------------------------------6-----------

E|--3-----3--5--6--5--6--5--3-----5--6--5-----5--3-----3--5--6--5--6--5--3-----5--6--5-----5--
B|-----3-----------------------3-----------6--------3-----------------------3-----------6-----
G|--------------------------------------------------------------------------------------------
D|--------------------------------------------------------------------------------------------
A|--------------------------------------------------------------------------------------------
E|--3--------------------------------------------3--------------------------------------------

E|--------------------------------------------------------------------------------------
B|-----------------3-----1-----------------------------------1--------------------------
G|--0-----------------------------2-----------3--------------------0--------------------
D|--------------------------------------------------------------------------------------
A|--------------------------------------------------------------------------------------
E|--3--3--3--3--3-----3-----3--3-----3--3--3-----3--3--3--3-----3-----3--3--3--3--3--3--

E|-----------------------------------------------------------------------------------------------
B|--------------3--1-----1--------------3--1-----1--------------3--1-----1-----------------------
G|--0--3--2--3--------3-----0--3--2--3--------3-----0--3--2--3--------3-----0--3--2--3--0--2--3--
D|-----------------------------------------------------------------------------------------------
A|-----------------------------------------------------------------------------------------------
E|--3-----------------------------------------------3--------------------------------------------

E|--1--------------3-----------------------------------------1-----------------------
B|-----------------------4--------------------4-----------------4--3--------1--------
G|-----------------------------------------------------------------------------------
D|--1--1--1--1--1-----1-----1--1--1--1--1--1-----1--1--1--1-----------1--1-----1--1--
A|-----------------------------------------------------------------------------------
E|-----------------------------------------------------------------------------------

E|-----------------------------------------------------------------------------------------------8--
B|--3-----------3--1-----1--------------3--1-----1--------------3--1-----1--------------8--10-11----
G|-----3--2--3--------3-----0--3--2--3--------3-----0--3--2--3--------3-----0--3--2--3--------------
D|--------------------------------------------------------------------------------------------------
A|--------------------------------------------------------------------------------------------------
E|--3-----------------------------------------------3-----------------------------------------------

E|--10-8--6--------------------------
B|-----------10-------3--1-----------
G|--------------2--3--------3--2-----
D|--------------------1--------0--3--
A|--6--------8-----------------------
E|-----------------------------------

E|--------------------------------------------------------------------
B|-----------------------------------------------------------------1--
G|--------------------------------------------------------0--2--3-----
D|--5--5--5--5--5--3--5--5--5--5--3--5--5--5--5--3--5--5--------------
A|--5--5--5--5--5--3--5--5--5--5--3--5--5--5--5--3--5--5--------------
E|--3--3--3--3--3--3--3--3--3--3--3--3--3--3--3--3--3--3--------------

E|--------------------------------------------------------------
B|--3--1--------------------------------------------------------
G|--------3--2-----3--2--0-----2--3-----------------------------
D|--1-----------3--1--------3-----5--5--5--5--5-----5--5--5--5--
A|--------------------------5-----5--5--5--5--5--3--5--5--5--5--
E|-----------1--------------------3--3--3--3--3--3--3--3--3--3--

E|-----------------------------------------
B|-----------------------------------------
G|-----------------------------------------
D|--3--5--5--5--5--3--5-----------------5--
A|--3--5--5--5--5--3--5--5--5--5--5--5--5--
E|--3--3--3--3--3--3--3--3--3--3--3--3--3--


Paste any tab in acousterr's tab maker and we'll play it !!!
Now supports capo and sound effects for vibrato/pull-off/hammer/bends/mutes etc !!! Checkout help section
tabs and chords, guitar tabs, music transcription, music technology, deep learning, music information retrieval, transcribe into tabs & chords, chordify, music renditions, songsterr, reverbnation, tabulature, bollywood chords, ultimate guitar, yousician, guitar lessons, acoustic guitar, electric guitar, guitar tuner, 911 tabs