Guitar Tabs for ?? ?????

(/) Slide Up  (\) Slide Down  (h) Hammer On  (p) Pull Off  (b) Bend (r) Release (v) Vibrato (x) Muted

Tabs for Song : 
BPM : 200

Song lyrics here 
E|-----------------------------------------------------------------------------------------------------------------------------------
B|--------------------------------------------------------------------------------------------------------------------------------
G|--------------------------------------------------------------------------------------------------------------------------------
D|-----------------------------0--3--7--------------------------------------------------------0--3--7--0--3--7--------------------
A|--0--3--7--0--3--7--------------------------------------0--3--7-----------0--3--7--0--3--7--------------------------------------
E|--------------------0--4--7-----------0--4--7--0--4--7-----------0--4--7--------------------------------------0--4--7--0--4--7--

Song lyrics here 


Use manual mode to free up cursor. Paste any tab in acousterr tab maker and we'll play it !!!
E|-----------
B|-----------
G|-----------
D|--0--3--7--
A|-----------
E|-----------
tabs and chords, guitar tabs, music transcription, music technology, deep learning, music information retrieval, transcribe into tabs & chords, chordify, music renditions, songsterr, reverbnation, tabulature, bollywood chords, ultimate guitar, yousician, guitar lessons, acoustic guitar, electric guitar, guitar tuner, 911 tabs