Guitar Tabs for Zindagi Di Paudi

Mehal da waada nai karda main
E|-----------------------------------------------------------
B|--6--6--6--7---7/9--9--9-----6--6--6--7---7/9--9---9/11----
G|-----------------------------------------------------------
D|-----------------------------------------------------------
A|-----------------------------------------------------------
E|-----------------------------------------------------------

Ikk chhota jeha ghar hona
E|--------------------------------------------------
B|--11-11-11-9--11----11/14----13h14p13-11\9--9-----
G|--------------------------------------------------
D|--------------------------------------------------
A|--------------------------------------------------
E|--------------------------------------------------

Lakh karodan nai judne ne
E|--------------------------------------------------------
B|--6--6--6--7---7/9--9--9-----11/14-14-13-13\11-11-11----
G|--------------------------------------------------------
D|--------------------------------------------------------
A|--------------------------------------------------------
E|--------------------------------------------------------

Hazaaran vich hi sar hona
E|--------------------------------------------------
B|--11-11-11-9--11----11/14----13h14p13-11\9--9-----
G|--------------------------------------------------
D|--------------------------------------------------
A|--------------------------------------------------
E|--------------------------------------------------

Main ohna chon nahi jo tainu paun lai
Wadde wadde khawab dikhaye
E|---8/9--9--9--9--8--9--11-9--9-----9--9--9--8--9--11-9--8--------------------
B|-----------------------------------------------------------9--9--11-9--9-----
G|-----------------------------------------------------------------------------
D|-----------------------------------------------------------------------------
A|-----------------------------------------------------------------------------
E|-----------------------------------------------------------------------------

Main ohna chon nahi jo tainu paun lai
Ambraan ton tare laike aaye
E|---8/9--9--9--9--8--9--11-9--9-----9--9--9--8--9--11-9--8--------------------
B|-----------------------------------------------------------9--9--11-9--9-----
G|-----------------------------------------------------------------------------
D|-----------------------------------------------------------------------------
A|-----------------------------------------------------------------------------
E|-----------------------------------------------------------------------------

Ohna hi kahunga jinna kar sakunga
E|-----------------------------------------------------------------
B|--9--11-11-11-9--11-11/14-13\11----11-11-11-9--11-11/14-13\11----
G|-----------------------------------------------------------------
D|-----------------------------------------------------------------
A|-----------------------------------------------------------------
E|-----------------------------------------------------------------

Tere naal jeena tere naal maraange
E|--------------------9--9--8---9/11-11-9---9/11----9---8h-9p8---6h-8p6--4-----
B|--9--11-11-11-9--11----------------------------------------------------------
G|-----------------------------------------------------------------------------
D|-----------------------------------------------------------------------------
A|-----------------------------------------------------------------------------
E|-----------------------------------------------------------------------------

Zindagi di paudi jithe tak chadhange
Tere naal chadhange
E|---8/9--9--9--9--8--9--11-9--9-----9--9--9--8--9--11-9--8--------------------
B|-----------------------------------------------------------9-----11-9--9-----
G|-----------------------------------------------------------------------------
D|-----------------------------------------------------------------------------
A|-----------------------------------------------------------------------------
E|-----------------------------------------------------------------------------

Sukh hove dukh hove dhupp chaahe chaan
Tere naal khadange
E|---8/9--9--9--9--8--9--11-11/12\11-9--9--9--9--8--9--11-11/12\11-8-----------------
B|--------------------------------------------------------------------9-----11-9--9--
G|-----------------------------------------------------------------------------------
D|-----------------------------------------------------------------------------------
A|-----------------------------------------------------------------------------------
E|-----------------------------------------------------------------------------------

tabs and chords, guitar tabs, music transcription, music technology, deep learning, music information retrieval, transcribe into tabs & chords, chordify, music renditions, songsterr, reverbnation, tabulature, bollywood chords, ultimate guitar, yousician, guitar lessons, acoustic guitar, electric guitar, guitar tuner, 911 tabs