Guitar Tabs for Mitti di khushboo

Tabs for Song : Mitti Di Khushboo

jadon ambaran barasya paani
E|--------------------------------------------------
B|--------------------------------------------------
G|--2--2--------2--2-----2--1--------------2--1-----
D|-----------4-----------------4--2--4--4-----------
A|--------------------------------------------------
E|--------------------------------------------------

mitti di khushboo
E|-----------------------------
B|-----------0-----------------
G|--1--1--1-----2--1-----------
D|--------------------4--2-----
A|-----------------------------
E|-----------------------------

mitti di khushboo
E|-----------------------
B|-----------------------
G|-----------------------
D|--4--4--4--4--2--------
A|-----------------4-----
E|-----------------------

mitti di khushboo aayi
E|-----------------------------------
B|-----------0-----------------------
G|--1--1--1-----2--1-----1-----------
D|--------------------------4--4-----
A|-----------------------------------
E|-----------------------------------

aambaran barasyan paani..
E|--------------------------------------------------------------------
B|--------------------------------------------------------------------
G|-----2--2-----2--2--2--2-----1--1-----------------------------------
D|--4--------------------------------4--2--4--4-----2--0--2--0--------
A|--------------------------------------------------------------4-----
E|--------------------------------------------------------------------

chaliye chl mudye sajna
E|--------------------------------------------------------
B|--2--2-----2--2--2--0--0-----------0--0--3-----3--2-----
G|--------------------------2--2--------------------------
D|--------------------------------------------------------
A|--------------------------------------------------------
E|--------------------------------------------------------

chal mudye bandeya
E|--------------------------------------------
B|--2--2--2--2--0--------0--0--3-----0--------
G|-----------------2--------------2-----1-----
D|--------------------------------------------
A|--------------------------------------------
E|--------------------------------------------

chal mudye us raah jitthe vasdi
E|--------------------------------------------------------------------------
B|--------------------------------------------------0-----------------------
G|--2--2--2--2--2--1--------------------2-----1--1-----1-----2--1-----------
D|--------------------4--2-----2--4--4-----------------------------4--2-----
A|--------------------------------------------------------------------------
E|--------------------------------------------------------------------------

jithe vasdi ,jithe vasdi ai khudai
E|-----------------------------------------------------------
B|--------------------------------0--------------------------
G|-----------------------1--1--1-----2--2--1-----1-----------
D|--4--4--4--4--2-----------------------------------4--4-----
A|-----------------4-----------------------------------------
E|-----------------------------------------------------------

jadon ambaraan barasyan paani
E|--------------------------------------------------
B|--------------------------------------------------
G|--2--2-----2--2-----2--1--------------2-----1-----
D|--------4-----------------4--2--4--4-----------4--
A|--------------------------------------------------
E|--------------------------------------------------

mitti di khusboo
E|-----------------------------
B|-----------0-----------------
G|--1--1--1-----2--1-----------
D|--------------------4--2-----
A|-----------------------------
E|-----------------------------

mitti di khushboo..
E|-----------------------
B|-----------------------
G|-----------------------
D|--4--4--4--4--2--------
A|-----------------4-----
E|-----------------------
tabs and chords, guitar tabs, music contests, music covers, songsterr, reverbnation, renditions, tabulature, bollywood chords, ultimate guitar, yousician, guitar lessons, torrins, fender, gibson, acoustic guitar, electric guitar, youtube covers, gootar, guitar tuner, A-Z tabs, 911 tabs