Guitar Tabs for Di Na Muli

(/) Slide Up  (\) Slide Down  (h) Hammer On  (p) Pull Off  (b) Bend (r) Release (v) Vibrato (x) Muted

Tabs for Song : 

Song lyrics here
E|--
B|--
G|--
D|--
A|--
E|--

Song lyrics here
E|--
B|--
G|--
D|--
A|--
E|--

Paste any tab in acousterr's tab maker and we'll play it !!!
Now supports capo and sound effects for vibrato/pull-off/hammer/bends/mutes etc !!! Checkout help section

Guitar Tabs for Di Na Muli





E|--------------------------------------------------------------------------------
B|------5/7--4---5/7--9--7---------------5/7--4---5/7--9--7-----------------------
G|--4------------------------6/8--6--4------------------------6/8--6--4---4/6--1--
D|--------------------------------------------------------------------------------
A|--------------------------------------------------------------------------------
E|--------------------------------------------------------------------------------

E|--------------------------------------
B|--------------------------------------
G|---6/7--6--4---6/7--6--4--4-----------
D|------------------------------4/6--4--
A|--------------------------------------
E|--------------------------------------



E|--------------------------------------------------------------------------------
B|------5/7--4---5/7--9--7---------------5/7--4---5/7--9--7-----------------------
G|--4------------------------6/8--6--4------------------------6/8--6--4---4/6--1--
D|--------------------------------------------------------------------------------
A|--------------------------------------------------------------------------------
E|--------------------------------------------------------------------------------

E|-----------------------------
B|-----------------------------
G|---6/7--6--4---6/7--6--4--4--
D|-----------------------------
A|-----------------------------
E|-----------------------------

E|-----------------------------------------------
B|-----------------------------------------------
G|--11-13-11-13-11-13-11-13-11-13-11-14b16-14b16-
D|-----------------------------------------------
A|-----------------------------------------------
E|-----------------------------------------------

E|-----------------------------------------------
B|-----------------------------------------------
G|--11-13-11-13-11-13-11-13-11-13-11-------------
D|-----------------------------------11b12-11-9--
A|-----------------------------------------------
E|-----------------------------------------------

E|-----------------------------------------------
B|-----------------------------------------------
G|--11-13-11-13-11-13-11-13-11-13-11-14b16-14b16-
D|-----------------------------------------------
A|-----------------------------------------------
E|-----------------------------------------------

E|--------------------------------------------
B|--------------------------------------------
G|--11-13-11-13-11-13-11-13-11-13-11-13-11/13-
D|--------------------------------------------
A|--------------------------------------------
E|--------------------------------------------

E|-----------------------------------
B|-----------------------------------
G|-----11/13-11--6/8--6---4p-6/8--6--
D|--9--------------------------------
A|-----------------------------------
E|-----------------------------------

E|-----------------------------------------------------------------------------------------------------------
B|------5/7--4---5/7--9--7---------------5/7--4---5/7--9--7--------------------------------------------------
G|--4------------------------6/8--6--4------------------------6/8--6--4---4/6--1---6/7--6--4---6/7--6--4--4--
D|-----------------------------------------------------------------------------------------------------------
A|-----------------------------------------------------------------------------------------------------------
E|-----------------------------------------------------------------------------------------------------------

E|--------------------------11-------------------------------------------
B|-----------------12----11----12/14-12----14/16-14-12----14/16-14-12----
G|---9/11-9--8--11----12----------------13-------------10-------------9--
D|-----------------------------------------------------------------------
A|-----------------------------------------------------------------------
E|-----------------------------------------------------------------------

E|-----------------------11-14/16-14-------------12-11----12-11-------
B|-----------9--12----11-------------16-14-12-12-------12-------12-12-
G|--8--9--11-------12-------------------------------------------------
D|--------------------------------------------------------------------
A|--------------------------------------------------------------------
E|--------------------------------------------------------------------

E|-----------------------------------------------------
B|-----------------------------------------------------
G|--11-13-11-13-11-13-11-13-11-13-11-13-11-14b16-14b16-
D|-----------------------------------------------------
A|-----------------------------------------------------
E|-----------------------------------------------------

E|-----------------------------------------------------
B|-----------------------------------------------------
G|--11-13-11-13-11-13-11-13-11-13-11-13-11-14b16-14b16-
D|-----------------------------------------------------
A|-----------------------------------------------------
E|-----------------------------------------------------

E|--------------------------------------------------
B|--------------------------------------------------
G|--11-13-11-13-11-13-11-13-11-13-11-13-11-13-11/13-
D|--------------------------------------------------
A|--------------------------------------------------
E|--------------------------------------------------

E|--------------------------------------
B|--------------------------------------
G|-----11/13-11--6/8--6---4p6---6/8--6--
D|--9-----------------------------------
A|--------------------------------------
E|--------------------------------------

E|-----------------------------------------------------------------------
B|------5/7--4--7--9--7--------------------------------------------------
G|--4---------------------6/8--6--4---4/6--1---6/7--6--4---6/7--6--4--4--
D|-----------------------------------------------------------------------
A|-----------------------------------------------------------------------
E|-----------------------------------------------------------------------


tabs and chords, guitar tabs, music transcription, music technology, deep learning, music information retrieval, transcribe into tabs & chords, chordify, music renditions, songsterr, reverbnation, tabulature, bollywood chords, ultimate guitar, yousician, guitar lessons, acoustic guitar, electric guitar, guitar tuner, 911 tabs