Guitar Tabs for Di Penjara Janji

(/) Slide Up  (\) Slide Down  (h) Hammer On  (p) Pull Off  (b) Bend (r) Release (v) Vibrato (x) Muted

Tabs for Song : 

Song lyrics here
E|-----------0-----------------------3-----------------------------0--
B|--------------0-----------------------1--0-----------------0--------
G|--------2--------2--------------0-----------------------2-----2-----
D|-----2-----------------------0-----------------------2--------------
A|--0-----------------------------------------------0-----------------
E|--------------------------3-----------------------------------------

Song lyrics her
E|-----------------------------------------------------------------
B|-----13-13----------15-15----15-13-12----------13-13----13-12----
G|--------------------------------------------------------------14-
D|--14-------------14-------------------------14-------------------
A|-----------------------------------------------------------------
E|-----------------------------------------------------------------

E|--------8-----------------------------------------------5--------
B|---8b8-----8--5--------------------------------------------8--5--
G|-----------------7--5---------7b7--7--7---7b7---7b7--------------
D|-----------------------------------------------------------------
A|-----------------------------------------------------------------
E|-----------------------------------------------------------------

E|--------8-----------------------------------------15b15-15b15-12-------15-------17-
B|---8b8-----8--------5--------------------------------------------15b15----15-------
G|------------------------7b7-----7--5-----5-----------------------------------------
D|--------------------------------------7--------------------------------------------
A|-----------------------------------------------------------------------------------
E|-----------------------------------------------------------------------------------

E|--19b19----19----19-17-20-17-15-
B|--------------17----------------
G|--------------------------------
D|--------------------------------
A|--------------------------------
E|--------------------------------

Paste any tab in acousterr's tab maker and we'll play it !!!
Now supports capo and sound effects for vibrato/pull-off/hammer/bends/mutes etc !!! Checkout help section
tabs and chords, guitar tabs, music transcription, music technology, deep learning, music information retrieval, transcribe into tabs & chords, chordify, music renditions, songsterr, reverbnation, tabulature, bollywood chords, ultimate guitar, yousician, guitar lessons, acoustic guitar, electric guitar, guitar tuner, 911 tabs