Guitar Tabs for Zero

(/) Slide Up  (\) Slide Down  (h) Hammer On  (p) Pull Off  (b) Bend (r) Release (v) Vibrato (x) Muted

Tabs & Chords
BPM : 117.0
Check Track 2 for Chord Positions 

    F#                      C#                            D#m      D#          B              
E|--------------------------------------------------------------------------------------------
B|--------------------------0-----------------------------------------------------------------
G|-----------------3-----3--------------------------------------------------------------------
D|-----------------------------3-----3--4--3--3-----3-----1-----3--4-----4--3-----1-----0-----
A|--------4--4-----------------------------------------------------------------2-----------2--
E|--2-----------------------------------------------------------------------------------------

                   F#                         C#                         D#m   D#       B     
E|--------------------------------------------------------------------------------------------
B|-----------0--------------------------------------------------------------------------------
G|-----------------------3--2--3-----3--3-----------------------------------------------------
D|--4--4-----------4--------------------------3-----3-----3-----3--3-----0-----3-----4--4--0--
A|--------------------------------------------------------------------------------------------
E|--------------------------------------------------------------------------------------------

                                  
E|--------------------------------
B|-----------------0--------------
G|--------------------3-----------
D|-----1-----4--------------------
A|--------------------------------
E|--------------------------------

Guitar Tabs for Zero






    F#                      C#                            D#m      D#          B              
E|--2-----------------------4-----------------------------6--------6-----------2--------------
B|--2-----------------------6-----------------------------7--------8-----------4--------------
G|--3-----------------------6-----------------------------8--------8-----------4--------------
D|--4-----------------------6-----------------------------8--------8-----------4--------------
A|--4-----------------------4-----------------------------6--------6-----------2--------------
E|--2-----------------------------------------------------------------------------------------

                   F#                         C#                         D#m   D#       B     
E|-----------------2--------------------------4--------------------------6-----6--------2-----
B|-----------------2--------------------------6--------------------------7-----8--------4-----
G|-----------------3--------------------------6--------------------------8-----8--------4-----
D|-----------------4--------------------------6--------------------------8-----8--------4-----
A|-----------------4--------------------------4--------------------------6-----6--------2-----
E|-----------------2--------------------------------------------------------------------------

                                  
E|--------------------------------
B|--------------------------------
G|--------------------------------
D|--------------------------------
A|--------------------------------
E|--------------------------------

tabs and chords, guitar tabs, music transcription, music technology, deep learning, music information retrieval, transcribe into tabs & chords, chordify, music renditions, songsterr, reverbnation, tabulature, bollywood chords, ultimate guitar, yousician, guitar lessons, acoustic guitar, electric guitar, guitar tuner, 911 tabs