Guitar Tabs for Zalima

Tabs for Song : Zalima

Jo tere khatir tadpe, phle se hi

E|-----------------------------------------
B|--2--2--2--0--2--0--2-----0--2--0--2-----
G|-----------------------------------------
D|-----------------------------------------
A|-----------------------------------------
E|-----------------------------------------

Kya use tadpana

E|--------------------------
B|--0--2--0--------0--2-----
G|-----------2--2-----------
D|--------------------------
A|--------------------------
E|--------------------------

O zalima,o zalima

E|--0-----------------0-----------------
B|-----2--0-----3--------2--0-----------
G|-----------2-----------------2--2-----
D|--------------------------------------
A|--------------------------------------
E|--------------------------------------

Jo tere ishq me behka phle se hi 

E|-----------------------------------------
B|--2--2--2--0--2--0--2-----0--2--0--2-----
G|-----------------------------------------
D|-----------------------------------------
A|-----------------------------------------
E|-----------------------------------------

kya use behkana 

E|--------------------------
B|--0--2--0--------0--2-----
G|-----------2--2-----------
D|--------------------------
A|--------------------------
E|--------------------------

O zalima, o zalima

E|--0-----------------0-----------------
B|-----2--0-----3--------2--0-----------
G|-----------2-----------------2--2-----
D|--------------------------------------
A|--------------------------------------
E|--------------------------------------

O zalima, o zalima

E|--0-----------------0-----------------
B|-----2--0-----3--------2--0-----------
G|-----------2-----------------2--2-----
D|--------------------------------------
A|--------------------------------------
E|--------------------------------------

Aankhen marhaba, baatein marhaba

E|--0-----------0--0--0-----0-----------0--0--0--------
B|-----2--2--3-----------------2--2--3-----------3-----
G|-----------------------------------------------------
D|-----------------------------------------------------
A|-----------------------------------------------------
E|-----------------------------------------------------

Main sau martaba deewana huaa

E|--------0--2--2--2--0-----0--0--5--2--0--------0-----------
B|--3--3-----------------------------------3--------3--2-----
G|-----------------------------------------------------------
D|-----------------------------------------------------------
A|-----------------------------------------------------------
E|-----------------------------------------------------------

Mera na rahe jab se dil mera

E|--0-----------0--0--0-----0-----------0--0--0--------
B|-----2--2--3-----------------2--2--3-----------3-----
G|-----------------------------------------------------
D|-----------------------------------------------------
A|-----------------------------------------------------
E|-----------------------------------------------------

Tere husn ka nasha hua

E|--------0--2--2--2--0-----0--0--5--2--0-----0-----------
B|--3--3-----------------------------------3-----3--2-----
G|--------------------------------------------------------
D|--------------------------------------------------------
A|--------------------------------------------------------
E|--------------------------------------------------------

Jiski har dhadkana tu ho

E|-----------------------------
B|--2--2--2--0--2-----0--2-----
G|-----------------------------
D|-----------------------------
A|-----------------------------
E|-----------------------------

Ase dil ko kya dhadkana

E|--------------------------
B|--0--2--0--------0--2-----
G|-----------2--2-----------
D|--------------------------
A|--------------------------
E|--------------------------

O zalima, o zalima

E|--0-----------------0-----------------
B|-----2--0-----3--------2--0-----------
G|-----------2-----------------2--2-----
D|--------------------------------------
A|--------------------------------------
E|--------------------------------------



tabs and chords, guitar tabs, music contests, music covers, songsterr, reverbnation, renditions, tabulature, bollywood chords, ultimate guitar, yousician, guitar lessons, torrins, fender, gibson, acoustic guitar, electric guitar, youtube covers, gootar, guitar tuner, A-Z tabs, 911 tabs