Guitar Tabs for Tum Hi Ho - Ashiqui 2 Tabs

Tabs for Song : tum hi ho

hum tere bin ab rah nhi skte
E|--------1-----------------------------------------
B|--1--1-----4--4--2--2--1-----------2--1--1--1-----
G|--------------------------3--1--3-----------------
D|--------------------------------------------------
A|--------------------------------------------------
E|--------------------------------------------------

tere bina kya wajood mila
E|--------------------------------------------
B|--------------------------------------------
G|--3-----3--1--3-----3--1--0-----------------
D|--------------------------------1--3--3-----
A|--------------------------------------------
E|--------------------------------------------

tujhse juda ager ho jaenge 
E|--------1-----------------------------------------
B|--1--1-----4--4--2--2--1-----------2--1--1--1-----
G|--------------------------3--1--3-----------------
D|--------------------------------------------------
A|--------------------------------------------------
E|--------------------------------------------------

to khud se hi ho jaenge juda
E|--------------------------------------------
B|--------------------------------------------
G|--3-----3--1--3-----3--1--0-----------------
D|--------------------------------1--3--3-----
A|--------------------------------------------
E|--------------------------------------------

kyki tum hi ho ab tum hi ho
E|-----------------------------------------------
B|--------1-----------------------1--------------
G|--1--3--------1--3--------1--3--------1--3-----
D|-----------------------------------------------
A|-----------------------------------------------
E|-----------------------------------------------

zindgi ab tum hi ho
E|-----------------------------------------------
B|-----------------------------------------------
G|--0-----3--1-----0-----0--------------0--1--3--
D|--------------------3--------1--3--------------
A|-----------------------------------------------
E|-----------------------------------------------

chain bhi mera dard bhi
E|--------------------------------------
B|--1--------------------1--------------
G|--------1--3-----1--3--------1--3-----
D|--------------------------------------
A|--------------------------------------
E|--------------------------------------

meri ashiqui ab tum hi ho
E|-----------------------------------------
B|-----------------------------------------
G|--1--0--0-----3--1-----0-----0-----------
D|--------------------------3--------1--3--
A|-----------------------------------------
E|-----------------------------------------
tabs and chords, guitar tabs, music transcription, music technology, deep learning, music information retrieval, transcribe into tabs & chords, chordify, music renditions, songsterr, reverbnation, tabulature, bollywood chords, ultimate guitar, yousician, guitar lessons, acoustic guitar, electric guitar, guitar tuner, 911 tabs