Guitar Tabs for Yeh Dosti - Sholay

meri jeet teri jeet, teri haar meri haar
E|--10-10-10/12----12-12-12\10----10-10-10/12----12-12-12\10----
B|--------------------------------------------------------------
G|--------------------------------------------------------------
D|--------------------------------------------------------------
A|--------------------------------------------------------------
E|--------------------------------------------------------------


Sun ae mere yaar
E|--10----10-8---8h10p8--7--7-----
B|--------------------------------
G|--------------------------------
D|--------------------------------
A|--------------------------------
E|--------------------------------


Jaan pe bhi khelenge, 
tere liye le lenge
E|--7--7--8--10--8h10p8-----------5--5--7--8---7h-8p7--7--7-----
B|-----------------------10-10----------------------------------
G|--------------------------------------------------------------
D|--------------------------------------------------------------
A|--------------------------------------------------------------
E|--------------------------------------------------------------


Jaan pe bhi khelenge, 
tere liye le lenge
E|--7--7--8--10--8h10p8-----------5--5--7--8---7h-8p7-----------
B|-----------------------10-10-------------------------8--8-----
G|--------------------------------------------------------------
D|--------------------------------------------------------------
A|--------------------------------------------------------------
E|--------------------------------------------------------------


Sab se dushmani
E|--7--7--7--7------5h-7p5-----------
B|--------------------------8--8-----
G|-----------------------------------
D|-----------------------------------
A|-----------------------------------
E|-----------------------------------


Yeh dosti 
E|-----7--7--7--7------5h-7p5-----------------
B|-----------------------------8--8-----------
G|-----------------------------------7--7-----
D|--------------------------------------------
A|--------------------------------------------
E|--------------------------------------------


hum nahin todenge
E|-----10/12-12-12-12--7\5--5---5h-7p5--------
B|--------------------------------------8-----
G|--7-----------------------------------------
D|--------------------------------------------
A|--------------------------------------------
E|--------------------------------------------


Todenge dam magar
E|--7--7---8/10-8--8-----7---7h-8p7--------
B|-----------------------------------10----
G|-----------------------------------------
D|-----------------------------------------
A|-----------------------------------------
E|-----------------------------------------


Tera saath na chhodenge
E|--5--5---5h7--7--7---5h-7p5-----------
B|-----------------------------8--8-----
G|--------------------------------------
D|--------------------------------------
A|--------------------------------------
E|--------------------------------------
tabs and chords, guitar tabs, music transcription, music technology, deep learning, music information retrieval, transcribe into tabs & chords, chordify, music renditions, songsterr, reverbnation, tabulature, bollywood chords, ultimate guitar, yousician, guitar lessons, acoustic guitar, electric guitar, guitar tuner, 911 tabs