Ukulele Tabs for Ye Dosti Ukulele

Ae meri jeet teri jeet
teri haar meri haar
A|--5--5---5/7--7--7---7\5--5--5---5/7--7--7---7\5--
E|--------------------------------------------------
C|--------------------------------------------------
G|--------------------------------------------------

Sun ae mere yaar
A|--5------5\3------3/5--3--2-----
E|--------------------------------
C|--------------------------------
G|--------------------------------

Tera gham mera gham, 
meri jaan teri jaan
A|--5--5--5--5---5/7--7--7---7\5--5--5---5/7--7--7---7\5--
E|--------------------------------------------------------
C|--------------------------------------------------------
G|--------------------------------------------------------

Aisa apna pyaar
A|--5------5\3------3/5--3--2-----
E|--------------------------------
C|--------------------------------
G|--------------------------------

Jaan pe bhi khelenge, 
tere liye le lenge
A|--2--2--3--5---2h-3p2--------------------2--3---2h-3p2--2--2-----
E|-----------------------5--5--------5--5--------------------------
C|-----------------------------------------------------------------
G|-----------------------------------------------------------------

Jaan pe bhi khelenge, 
tere liye le lenge
A|--2--2--3--5---2h-3p2--------------2--3---2h-3p2-----------
E|-----------------------5--5--5--5-----------------3--3-----
C|-----------------------------------------------------------
G|-----------------------------------------------------------

Sab se dushmani
A|--------------------------------
E|---5/7--7--7---5h-7p5-----3--3--
C|--------------------------------
G|--------------------------------

Yeh dosti
A|--------------------------------------
E|---5/7--7--7---5h-7p5--3--3-----------
C|-----------------------------2--2-----
G|--------------------------------------

hum nahin todenge
A|---------5/7--5--5--5--------------------------
E|------------------------7\5--5---5h-7p5--3-----
C|--2--------------------------------------------
G|-----------------------------------------------

Todenge dam magar 
A|--2-----2---3h-5p-3p-2h3-----3-----2---2h-3p2--------
E|-----------------------------------------------5-----
C|-----------------------------------------------------
G|-----------------------------------------------------

tera saath na chhodenge
A|-----------------------------------------
E|-----5--5---5/7--7--7---5h-7p5--3--3-----
C|-----------------------------------------
G|-----------------------------------------
tabs and chords, guitar tabs, music transcription, music technology, deep learning, music information retrieval, transcribe into tabs & chords, chordify, music renditions, songsterr, reverbnation, tabulature, bollywood chords, ultimate guitar, yousician, guitar lessons, acoustic guitar, electric guitar, guitar tuner, 911 tabs