Guitar Tabs for Sholay Theme

E|-----------------------------------------------------------------------
B|-----------------------------------------------------------------------
G|-----------------------4--5--4--5--------4-----------------------------
D|--------------7-----------------------------------5--------5--7--5--7--
A|---3/5-----------------------------------------------------------------
E|-----------------------------------------------------------------------

E|--------------------------------------------------------------------------
B|--------------------------------------------------------------------------
G|--------------------4-----5--7--5--------2------2h-4p2--------------------
D|--------------7-----------------------------------------2-----5------5/7--
A|------3/5-----------------------------------------------------------------
E|--------------------------------------------------------------------------

E|------3/5--3--------------------------------------12-------10-------8--
B|--------------6---------6/10-------------------10----------------------
G|--------------------------------9---------7/9--------------------------
D|-----------------------------------------------------------------------
A|-----------------------------------------------------------------------
E|-----------------------------------------------------------------------

E|-----------------------------------------
B|-----------------------------------------
G|---------4/5--4--------------4-----------
D|-----------------------------------7-----
A|-----------------------7-----------------
E|-----------------------------------------
tabs and chords, guitar tabs, music transcription, music technology, deep learning, music information retrieval, transcribe into tabs & chords, chordify, music renditions, songsterr, reverbnation, tabulature, bollywood chords, ultimate guitar, yousician, guitar lessons, acoustic guitar, electric guitar, guitar tuner, 911 tabs