Ukulele Tabs for Sholay Ukulele Theme

A|--------------------2--3--2--3--------2--------------------------
E|--------------5--------------------------------3-----5--3--5-----
C|-----2-----------------------------------------------------------
G|-----------------------------------------------------------------


A|--------------------2--3--5--3-----------------------------------------
E|--------------5-----------------------5------5h-7p5--0-----3---3/5-----
C|-----2-----------------------------------------------------------------
G|-----------------------------------------------------------------------


A|--------------------------------
E|---3/5--3--1---------3/5--------
C|--------------------------4-----
G|--------------------------------


A|--------7--------5--------3---------2h3--2-----------------------
E|-----5------------------------------------------------5/7--5-----
C|--4-----------------------------------------------4--------------
G|-----------------------------------------------------------------
tabs and chords, guitar tabs, music transcription, music technology, deep learning, music information retrieval, transcribe into tabs & chords, chordify, music renditions, songsterr, reverbnation, tabulature, bollywood chords, ultimate guitar, yousician, guitar lessons, acoustic guitar, electric guitar, guitar tuner, 911 tabs