Guitar Tabs for Ye Jo Mohabbat Hai

arre Yeh Jo Mohabbat Hai Yeh Unaka Hain Kam
E|--9--9-----9--9-----7---9/10-9--9-----9--9--9--14----9--9---9h10p9--------
B|--------------------------------------------------------------------12----
G|--------------------------------------------------------------------------
D|--------------------------------------------------------------------------
A|--------------------------------------------------------------------------
E|--------------------------------------------------------------------------


Mehbub Kaa Jo Bas Lete Huye Nam
E|--9--9-----9--9-----7---9/10-9--9-----9--9--9--14----9--9---9h10p9--------
B|--------------------------------------------------------------------12----
G|--------------------------------------------------------------------------
D|--------------------------------------------------------------------------
A|--------------------------------------------------------------------------
E|--------------------------------------------------------------------------


Mar Jaye Mit Jaye Ho Jaye
E|-----------------10-9---9h10p9--------9--7---7h-9p7--------
B|---9/12-12-12-------------------12-------------------10----
G|-----------------------------------------------------------
D|-----------------------------------------------------------
A|-----------------------------------------------------------
E|-----------------------------------------------------------


Badanam
E|-----7--7--9--7-----7--------------------
B|--10-------------10----10-9--10-9--7-----
G|-----------------------------------------
D|-----------------------------------------
A|-----------------------------------------
E|-----------------------------------------


Rehane Do Chhodo Bhee Jane Do Yar  Ham Naa Karenge Pyar…
E|--------------------------------------------------------------------------------------7-----------------
B|--7--7--7--7-----7-----7--7---9/10-9---7h-9p7--------------------10----9---9/10----10----10-9--10-9-----
G|-----------------------------------------------9-----9--9-----9-----------------------------------------
D|--------------------------------------------------------------------------------------------------------
A|--------------------------------------------------------------------------------------------------------
E|--------------------------------------------------------------------------------------------------------

Rehane Do Chhodo Bhee Jane Do Yar  Ham Naa Karenge Pyar…
E|-----------------------------------------------------------------------------------
B|--7--7--7--7-----7-----7--7---9/10-9---7h-9p7--------------------10----9-----7-----
G|-----------------------------------------------9-----9--9-----9--------------------
D|-----------------------------------------------------------------------------------
A|-----------------------------------------------------------------------------------
E|-----------------------------------------------------------------------------------




tabs and chords, guitar tabs, music contests, music covers, songsterr, reverbnation, renditions, tabulature, bollywood chords, ultimate guitar, yousician, guitar lessons, torrins, fender, gibson, acoustic guitar, electric guitar, youtube covers, gootar, guitar tuner, A-Z tabs, 911 tabs