Guitar Tabs for Chura Liya Hai Tumne Jo Dil Ko

(/) Slide Up  (\) Slide Down  (h) Hammer On  (p) Pull Off  (b) Bend (r) Release (v) Vibrato (x) Muted

TABS FOR SONG - "CHURA LIYA HAI TUMNE JO DIL KO" FROM "YAADON KI BAARAT" 

no music part only lyrical tabs 
BPM : 135

chura liya hai tumne jo dil ko
E|--------------------------------------------0--
B|--------------------------------------------0--
G|--2--2---2\-5/4--2--2-----4--2---0\2--0-----1--
D|-----------------------------------------0--2--
A|--------------------------------------------2--
E|--------------------------------------------0--

nazar nahi churana sanam
E|-----------------------------------
B|-----------------------------------
G|--2--2---2\-5/4--2--2---2\4---2/1--
D|-----------------------------------
A|-----------------------------------
E|-----------------------------------
badal ke meri tum zindgani
E|--------------------------------------------
B|--------------------------------------------
G|--2--2---2\-5/4--2--2---2\4--2---0\2--0-----
D|-----------------------------------------0--
A|--------------------------------------------
E|--------------------------------------------
kahin badal na jaana sanam
E|-----------------------------------
B|-----------------------------------
G|--2--2---2\-5/4--2--2---2\4---2/1--
D|-----------------------------------
A|-----------------------------------
E|-----------------------------------
ye meraa dil
E|--------------------------
B|--------------------------
G|--7--7---7\9--9--7---7/4--
D|--------------------------
A|--------------------------
E|--------------------------
haan y mera dil

E|-----------------------------
B|-----------------------------
G|--7--7--7---7\9--9--7---7/4--
D|-----------------------------
A|-----------------------------
E|-----------------------------
han dil leke mujhko na bahlana chura liya
E|-----------------------------------------------------
B|-----------------------------------------------------
G|---7\6-----6--4-----6--4-----6--4---------------5h4--
D|--------7--------7--------7--------7--7--7--7--------
A|-----------------------------------------------------
E|-----------------------------------------------------
bahar banke aau kabhi tumhari dunia mai
E|-----------------------------------------------------
B|-----------3--3--3---3\5--5--3-----------------------
G|--2---4\5-----------------------5---2\4--5--5--5--5--
D|-----------------------------------------------------
A|-----------------------------------------------------
E|-----------------------------------------------------
guzar na jayein ye din kahin isi tammanana mai 
E|--------------------------------------------------------
B|-----------3--3--3---3\5--5--3--------------------------
G|--2--4--5-----------------------5--2--4--5--4--2--2--2--
D|--------------------------------------------------------
A|--------------------------------------------------------
E|--------------------------------------------------------
bahar banke aau kabhi tumhari dunia mai
E|--------------------------------------------------------
B|-----------3--3--3---3\5--5--3--------------------------
G|--2---4\5-----------------------5---2\4--5--5--5--5-----
D|-----------------------------------------------------
A|-----------------------------------------------------
E|-----------------------------------------------------
guzar na jaaye ye din kahin isi tammana mai
E|--------------------------------------------------------
B|-----------3--3--3---3\5--5--3--------------------------
G|--2--4--5-----------------------5--2--4--5--4--2--2--2--
D|--------------------------------------------------------
A|--------------------------------------------------------
E|--------------------------------------------------------
tum mere ho
E|-----------------------------
B|-----------------------------
G|--7--7--7---7\9--9--7---7/4--
D|-----------------------------
A|-----------------------------
E|-----------------------------
haan tum mere ho
E|-----------------------------
B|-----------------------------
G|--7--7--7---7\9--9--7---7/4--
D|-----------------------------
A|-----------------------------
E|-----------------------------
aaj tum itna wada karte jaana chura liya
E|-----------------------------------------------------
B|-----------------------------------------------------
G|---7/6-----6--4-----6--4-----6--4---------------5/4--
D|--------7--------7--------7--------7--7--7--7--------
A|-----------------------------------------------------
E|-----------------------------------------------------

THE REST PART OF THE SONG IS SAME 









Use manual mode to free up cursor. Paste any tab in acousterr tab maker and we'll play it !!!
tabs and chords, guitar tabs, music transcription, music technology, deep learning, music information retrieval, transcribe into tabs & chords, chordify, music renditions, songsterr, reverbnation, tabulature, bollywood chords, ultimate guitar, yousician, guitar lessons, acoustic guitar, electric guitar, guitar tuner, 911 tabs