Guitar Tabs for Ajeeb Daasta Hai Ye Full Song

Plucking Technoque (D : Down pluck)    (U : Up pluck)

Tabs for Song : Ajeeb Dasata Hai Ye
Time signature : 3/4
BPM : 205

        A     jee   b     daa   sa    ta    hai   ye   (D  U  D  U  D     D  U  D  U  D)                                                                           

E|-----10----8-----10----8-----------------------------------------------------------------
B|-----------------------------10----8-----------10----10-10-10-10-10----10-10-10-10-10----
G|-----------------------------------------10----------------------------------------------
D|-----------------------------------------------------------------------------------------
A|-----------------------------------------------------------------------------------------
E|-----------------------------------------------------------------------------------------


    Ka    ha    shu   ru    Ka    ha    Kha  tam   (D  U  D  U  D     D  U  D  U  D)
    
E|--10----8-----10----8-----------------------------------------------------------------
B|--------------------------10----8-----------8-----8--8--8--8--8-----8--8--8--8--8-----
G|--------------------------------------10----------------------------------------------
D|--------------------------------------------------------------------------------------
A|--------------------------------------------------------------------------------------
E|--------------------------------------------------------------------------------------

    Ye    man   zi   lein   hai  ko    n      si   (D  U  D  U  D     D  U  D  U  D)

E|--------------------------------------------------------------------------------------
B|--10----8-----10----8-----------------------------------------------------------------
G|--------------------------10----9-----7-----9-----7--7--7--7--7-----7--7--7--7--7-----
D|--------------------------------------------------------------------------------------
A|--------------------------------------------------------------------------------------
E|--------------------------------------------------------------------------------------

    Na    wo    sa   majh   sa    ke   na    hum   (D      D     D  D  D  D  D  D  D)

E|--8-----8-----10----8-----------------------------------------------------------------
B|--------------------------10----8-----------------------------------------------------
G|--------------------------------------10----10----------------------------------------
D|--------------------------------------------------10----10----10-10-10-10-10-10-10----
A|--------------------------------------------------------------------------------------
E|--------------------------------------------------------------------------------------

    Mu   baa    ra    ke    tum    he   ki    tum  (D  U  D  U  D     D  U  D  U  D)   

E|--------------------------------------------------------------------------------------
B|--------8-----10----11----10----11----8-----11----11-11-11-11-11----11-11-11-11-11----
G|--10----------------------------------------------------------------------------------
D|--------------------------------------------------------------------------------------
A|--------------------------------------------------------------------------------------
E|--------------------------------------------------------------------------------------

    Ki    si    ke   noo    r     ho    ga    ye   (D  U  D  U  D     D  U  D  U  D)

E|--10----8-----10----8-----------------10----8-----8--8--8--8--8-----8--8--8--8--8-----
B|--------------------------11----11----------------------------------------------------
G|--------------------------------------------------------------------------------------
D|--------------------------------------------------------------------------------------
A|--------------------------------------------------------------------------------------
E|--------------------------------------------------------------------------------------

    Mu   baa    ra    ke    tum    he   ki    tum  (D  U  D  U  D     D  U  D  U  D)

E|--------------------------------------------------------------------------------------
B|--------8-----10----11----10----11----8-----11----11-11-11-11-11----11-11-11-11-11----
G|--10----------------------------------------------------------------------------------
D|--------------------------------------------------------------------------------------
A|--------------------------------------------------------------------------------------
E|--------------------------------------------------------------------------------------

    Ki    si    ke   noo    r     ho    ga    ye   (D  U  D  U  D     D  U  D  U  D)

E|--10----8-----10----8-----------------10----8-----8--8--8--8--8-----8--8--8--8--8-----
B|--------------------------11----11----------------------------------------------------
G|--------------------------------------------------------------------------------------
D|--------------------------------------------------------------------------------------
A|--------------------------------------------------------------------------------------
E|--------------------------------------------------------------------------------------

    Ki    si    ke    it    ne    paa   s    ho    (D  U  D  U  D     D  U  D  U  D)    

E|--12----12----10----12----10----12----10----8-----------------------------------------
B|--------------------------------------------------11-11-11-11-11----11-11-11-11-11----
G|--------------------------------------------------------------------------------------
D|--------------------------------------------------------------------------------------
A|--------------------------------------------------------------------------------------
E|--------------------------------------------------------------------------------------

    Ki   sab    se    du    r     ho    ga    ye   (D     D     D  D  D  D  D  D  D)

E|--8-----8-----10----8-----------------------------------------------------------------------------
B|--------------------------10----8-----------------------------------------------------------------
G|--------------------------------------10----10----------------------------------------------------
D|--------------------------------------------------10----10----10-10-10-10-10-10-10----------------
A|--------------------------------------------------------------------------------------------------
E|--------------------------------------------------------------------------------------------------

Use manual mode to free up cursor. Paste any tab in acousterr tab maker and we'll play it !!!
tabs and chords, guitar tabs, music transcription, music technology, deep learning, music information retrieval, transcribe into tabs & chords, chordify, music renditions, songsterr, reverbnation, tabulature, bollywood chords, ultimate guitar, yousician, guitar lessons, acoustic guitar, electric guitar, guitar tuner, 911 tabs