Guitar Tabs for Ajeeb Dastaan Hai Ye - Melody Tabs

(/) Slide Up  (\) Slide Down  (h) Hammer On  (p) Pull Off  (b) Bend (r) Release (v) Vibrato (x) Muted

Tabs for Song : 
BPM : 200

Song lyrics here
E|--9--7--9---7h-9p7--------------------------9--7--9---7h-9p7-----------------------
B|--------------------9---7h-9p7------7/9-----------------------9---7h-9p7-----------
G|--------------------------------9-----------------------------------------9---9/11-
D|-----------------------------------------------------------------------------------
A|-----------------------------------------------------------------------------------
E|-----------------------------------------------------------------------------------

Song lyrics here
E|-----------------------------------------
B|--9--7--9---7h-9p7-----------------------
G|--------------------9---8h-9p8--6---8\6--
D|-----------------------------------------
A|-----------------------------------------
E|-----------------------------------------

E|-----7--9--7-----------------------------------------------------9--7--9---7h-9p7--------9--7--
B|--------------9---7\5-----------------7--9--10-9--10-7--7--10----------------------10-10-------
G|--4--------------------6---9\4-----9-----------------------------------------------------------
D|-----------------------------------------------------------------------------------------------
A|-----------------------------------------------------------------------------------------------
E|-----------------------------------------------------------------------------------------------

E|--11-11-11--9/11-9---7/9--7-----------7--7--9---7h-9p7-----------------------
B|-----------------------------10----10-------------------9---7h-9p7-----------
G|--------------------------------------------------------------------6---9\4--
D|-----------------------------------------------------------------------------
A|-----------------------------------------------------------------------------
E|-----------------------------------------------------------------------------

Paste any tab in acousterr's tab maker and we'll play it !!!
Now supports capo and sound effects for vibrato/pull-off/hammer/bends/mutes etc !!! Checkout help section
tabs and chords, guitar tabs, music transcription, music technology, deep learning, music information retrieval, transcribe into tabs & chords, chordify, music renditions, songsterr, reverbnation, tabulature, bollywood chords, ultimate guitar, yousician, guitar lessons, acoustic guitar, electric guitar, guitar tuner, 911 tabs