Guitar Tabs for Yaara Teri Yaari Ko Maine To Khuda Mana

(/) Slide Up  (\) Slide Down  (h) Hammer On  (p) Pull Off  (b) Bend (r) Release (v) Vibrato (x) Muted

Tabs for Song : 
e|-----------------------------------------------------------------------------3-----------------------
b|--3--3--4--6--6--6--5--6--3--3--4--6--6--6--5--6--------3--4--4--4--3--4--4-----6--4--6--4--3---1/3--
g|--------------------------------------------------5--5-----------------------------------------------
D|-----------------------------------------------------------------------------------------------------
A|-----------------------------------------------------------------------------------------------------
E|-----------------------------------------------------------------------------------------------------

e|-----------------------------------------------------------------------------3--------------------------
b|--3--3--4--6--6--6--5--6--3--3--4--6--6--6--5--6--------3--4--4--4--3--4--4-----6--4--6--4--3---1/3-----
g|--------------------------------------------------5--5-----------------------------------------------3--
D|--------------------------------------------------------------------------------------------------------
A|--------------------------------------------------------------------------------------------------------
E|--------------------------------------------------------------------------------------------------------

e|--------------------------------------------------------------------------------
b|-----------4---3\1---1/3-----------------------------3--------------------------
g|-----3--5-----------------3---3/5--------------2--3-----5--3--5--3---0h3--2-----
d|--3--------------------------------------3-----------------------------------3--
A|--------------------------------------------------------------------------------
E|--------------------------------------------------------------------------------

e|-----------------------------------------------------------------------------------
b|-----------4---3\1---1/3-----------6--------------------3--------------------------
g|-----3--5-----------------3---3/5-----5-----------2--3-----5--3--5--3---0h3--2-----
d|--3-----------------------------------------3-----------------------------------3--
A|-----------------------------------------------------------------------------------
E|-----------------------------------------------------------------------------------
Song lyrics here
E|--
B|--
G|--
D|--
A|--
E|--

Song lyrics here
E|--
B|--
G|--
D|--
A|--
E|--

Paste any tab in acousterr's tab maker and we'll play it !!!
Now supports capo and sound effects for vibrato/pull-off/hammer/bends/mutes etc !!! Checkout help section
tabs and chords, guitar tabs, music transcription, music technology, deep learning, music information retrieval, transcribe into tabs & chords, chordify, music renditions, songsterr, reverbnation, tabulature, bollywood chords, ultimate guitar, yousician, guitar lessons, acoustic guitar, electric guitar, guitar tuner, 911 tabs