Guitar Tabs for Baton ko teri

Tabs for Song : Baton Ko Teri


melody 
E|-----3--1-----------------------
B|--1--------4--3--1-----4--3-----
G|--------------------3-----------
D|--------------------------------
A|--------------------------------
E|--------------------------------

E|-----3--1-----------------------
B|--1--------4--3--1-----3--1-----
G|--------------------3-----------
D|--------------------------------
A|--------------------------------
E|--------------------------------

baton ko teri hum bhula na sake

E|--------------------------------------------
B|-----1--3--4--4-----3--1--3--3--1-----------
G|--0-----------------------------------3-----
D|--------------------------------------------
A|--------------------------------------------
E|--------------------------------------------

hoke juda hum na juda ho sake

E|-----------------------------------------
B|--------1--3--3-----3--1--4--3--1--1-----
G|--3--3-----------------------------------
D|-----------------------------------------
A|-----------------------------------------
E|-----------------------------------------

dil mein hai zinda har ghadi tu kahi

E|--------------------------------------------
B|-----1--3--4--4-----3--1--3--3--1-----------
G|--0-----------------------------------3-----
D|--------------------------------------------
A|--------------------------------------------
E|--------------------------------------------

hoke juda hum na juda ho sake

E|-----------------------------------------
B|--------1--3--3-----3--1--4--3--1--1-----
G|--3--3-----------------------------------
D|-----------------------------------------
A|-----------------------------------------
E|-----------------------------------------

melody

E|-----3--1-----------------------
B|--1--------4--3--1-----4--3-----
G|--------------------3-----------
D|--------------------------------
A|--------------------------------
E|--------------------------------

E|-----3--1-----------------------
B|--1--------4--3--1-----3--1-----
G|--------------------3-----------
D|--------------------------------
A|--------------------------------
E|--------------------------------

kitni cahat hai dil tu jaane na

E|--------------------------------------------------
B|--1--1--1-----1--3--4--3--4-----3--1--------------
G|-----------------------------------------3--1-----
D|--------------------------------------------------
A|--------------------------------------------------
E|--------------------------------------------------

kaise dil ko samjhaya dil maane na

E|--------------------------------------------
B|--------------1--3--1--3-----4--3--1--1-----
G|--3--3-----3--------------------------------
D|--------------------------------------------
A|--------------------------------------------
E|--------------------------------------------

baton ko teri hum bhula na sake

E|--------------------------------------------
B|-----1--3--4--4-----3--1--3--3--1-----------
G|--0-----------------------------------3-----
D|--------------------------------------------
A|--------------------------------------------
E|--------------------------------------------

hoke juda hum na juda ho sake

E|-----------------------------------------
B|--------1--3--3-----3--1--4--3--1--1-----
G|--3--3-----------------------------------
D|-----------------------------------------
A|-----------------------------------------
E|-----------------------------------------

tabs and chords, guitar tabs, music contests, music covers, songsterr, reverbnation, renditions, tabulature, bollywood chords, ultimate guitar, yousician, guitar lessons, torrins, fender, gibson, acoustic guitar, electric guitar, youtube covers, gootar, guitar tuner, A-Z tabs, 911 tabs