Guitar Tabs for Yaara Teri Yaari

Meri zindagi sawaari
Mujhko gale lagake
E|--------------------------------------------------------------------------
B|--------------------6--6--6---5h-6p5--6--------------6--6--6---5h-6p5--6--
G|---5/7--7--7---7/8-----------------------7--7---7/8-----------------------
D|--------------------------------------------------------------------------
A|--------------------------------------------------------------------------
E|-----------------------------------------------------------------------------

Baitha diya falak pe
Mujhe khaak se oothake...
E|-----------------------------------------------------------------------
B|--------------------------------------8--6-----6-----------------------
G|--5--5---5/7--8--8--8---7h-8p7--8--8--------8-----8---7h-8p7--5---5/7--
D|-----------------------------------------------------------------------
A|-----------------------------------------------------------------------
E|-----------------------------------------------------------------------

Yaara teri yaari ko
E|--------------------------------------------------
B|-----------4---3h-4p3-----3-----------------------
G|-----3--5--------------5-----3---3/5---5h-7p5--5--
D|--3-----------------------------------------------
A|--------------------------------------------------
E|--------------------------------------------------

Maine to khuda mana
E|--------------------------------------------------------
B|-----------------3--------------------------------------
G|--------2---2/3-----5--3---3h-5p3-----------------------
D|---2/3-----------------------------5---5/8---7h-8p7--5--
A|--------------------------------------------------------
E|--------------------------------------------------------

Yaad karegi duniya
E|--------------------------------------------------
B|-----------4---3h-4p3-----3-----------------------
G|-----3--5--------------5-----3---3/5---5h-7p5--5--
D|--3-----------------------------------------------
A|--------------------------------------------------
E|--------------------------------------------------

Tera mera afsana
E|--------------------------------------------------------
B|-----------------3--------------------------------------
G|--------2---2/3-----5--3---3h-5p3-----------------------
D|---2/3-----------------------------5---5/8---7h-8p7--5--
A|--------------------------------------------------------
E|--------------------------------------------------------

Tere jaisa yaar kahan
E|--------------------------------------------------
B|-----------4---3h-4p3-----3-----------------------
G|-----3--5--------------5-----3---3/5---5h-7p5--5--
D|--3-----------------------------------------------
A|--------------------------------------------------
E|--------------------------------------------------

Kahan aisa yaarana
E|--------------------------------------------
B|-----------------3--------------------------
G|--------2---2/3-----5--3---3h-5p3-----------
D|---2/3-----------------------------5---5/8--
A|--------------------------------------------
E|--------------------------------------------

tabs and chords, guitar tabs, music transcription, music technology, deep learning, music information retrieval, transcribe into tabs & chords, chordify, music renditions, songsterr, reverbnation, tabulature, bollywood chords, ultimate guitar, yousician, guitar lessons, acoustic guitar, electric guitar, guitar tuner, 911 tabs