Guitar Tabs for Baaton Ko Teri - Arijit Singh Tabs

(/) Slide Up  (\) Slide Down  (h) Hammer On  (p) Pull Off  (b) Bend (r) Release (v) Vibrato (x) Muted

Tabs for Song : Baaton Ko Teri 

Intro ( 2times )
E|--------------------------------------------------------
B|-----8--6-----------------------8--6--------------------
G|--5--------8--7--5-----8--7--5--------8--7--5-----7--5--
D|--------------------8--------------------------8--------
A|--------------------------------------------------------
E|--------------------------------------------------------

Baaton Ko Teri Hum Bhula Na Sake
E|--------8--10-10/11-11-10-8---8/10----------
B|---6/8-----------------------------13-11-11-
G|--------------------------------------------
D|--------------------------------------------
A|--------------------------------------------
E|--------------------------------------------

Hoke Judaa Hum Na Judaa Ho Sake
E|-----------10-10-10-8--10/11-10-8--8--
B|--11-11-13----------------------------
G|--------------------------------------
D|--------------------------------------
A|--------------------------------------
E|--------------------------------------

Dil Mein Hai Zinda Har Ghadi Tu Kahin
E|--------8--10-10/11-11-10-8---8/10----------
B|---6/8-----------------------------13-11-11-
G|--------------------------------------------
D|--------------------------------------------
A|--------------------------------------------
E|--------------------------------------------

Hoke Judaa Hum Na Judaa Ho Sake
E|-----------10-10-10-8--10/11-10-8--8--
B|--11-11-13----------------------------
G|--------------------------------------
D|--------------------------------------
A|--------------------------------------
E|--------------------------------------

Kitni Chahat Hain Dil Mein Tu Jaane Naa
E|--8--8--8--10-11-10-11-10----------
B|--------------------------11-9--9--
G|-----------------------------------
D|-----------------------------------
A|-----------------------------------
E|-----------------------------------

Kaise Dil Ko Samjhaye Dil Maane Na
E|-----------8--10-8--10-11-10-8--8--
B|--11-11-11-------------------------
G|-----------------------------------
D|-----------------------------------
A|-----------------------------------
E|-----------------------------------

Baaton Ko Teri Hum Bhula Na Sake
E|--------8--10-10/11-11-10-8---8/10----------
B|---6/8-----------------------------13-11-11-
G|--------------------------------------------
D|--------------------------------------------
A|--------------------------------------------
E|--------------------------------------------

Hoke Judaa Hum Na Judaa Ho Sake
E|-----------10-10-10-8--10/11-10-8--8--
B|--11-11-13----------------------------
G|--------------------------------------
D|--------------------------------------
A|--------------------------------------
E|--------------------------------------
tabs and chords, guitar tabs, music transcription, music technology, deep learning, music information retrieval, transcribe into tabs & chords, chordify, music renditions, songsterr, reverbnation, tabulature, bollywood chords, ultimate guitar, yousician, guitar lessons, acoustic guitar, electric guitar, guitar tuner, 911 tabs