Guitar Tabs for Teri Mitti

O maai meri kya fiqr tujhe
Kyun aankh se dariya behta hai
E|-----------------------------------------------------------------------------------------------------------------
B|---4/6--6-----6--8--8------6h-8p6--6-----6--8--8------6h-8p6--6-----6--8------6\4---4h-6p4--3-----3--4--4--------
G|-----------------------------------------------------------------------------------------------------------------
D|-----------------------------------------------------------------------------------------------------------------
A|-----------------------------------------------------------------------------------------------------------------
E|-----------------------------------------------------------------------------------------------------------------

Tu kehti thi tera chaand hoon main
E|--------------------------------------------------
B|--4--3--3-----3--4--4-----4--3---4/6--4--3--------
G|--------------------------------------------5-----
D|--------------------------------------------------
A|--------------------------------------------------
E|--------------------------------------------------

Aur chaand hamesha rehta hai
E|--------------------------------------------------
B|-----------------------------8--------------------
G|--5--3---3\1--1--3---3/10-10----10\8--8--8--8-----
D|--------------------------------------------------
A|--------------------------------------------------
E|--------------------------------------------------

O maai meri kya fiqr tujhe
Kyun aankh se dariya behta hai
E|--13-13-13----13-15-15----13h15p13-13----13-15-15----13h15p13-13----13-15-13\11----11h13p11-10----10-11-11----
B|--------------------------------------------------------------------------------------------------------------
G|--------------------------------------------------------------------------------------------------------------
D|--------------------------------------------------------------------------------------------------------------
A|--------------------------------------------------------------------------------------------------------------
E|--------------------------------------------------------------------------------------------------------------


Tu kehti thi tera chaand hoon main
E|--11-10-10----10-11-11----11-10-11/13-11-10-------
B|--------------------------------------------13----
G|--------------------------------------------------
D|--------------------------------------------------
A|--------------------------------------------------
E|--------------------------------------------------

Aur chaand hamesha rehta hai
E|-----------------------------15-------------------
B|--13-11-9-----9--11-11/18-18----18\16-16-16-16----
G|--------------------------------------------------
D|--------------------------------------------------
A|--------------------------------------------------
E|--------------------------------------------------

Teri mitti mein mill jawaan
E|-----------------------------------------------------
B|-----------------------------------------------------
G|---3/5--3--5--5------5/8-----8--7---8/10--8\7---7\5--
D|-----------------------------------------------------
A|-----------------------------------------------------
E|-----------------------------------------------------

Gul banke main khill jawaan
E|-----------------------------------------------
B|-----------------------------------------------
G|--5--3--5--5------5/8--8--7---8/10--8\7---7\5--
D|-----------------------------------------------
A|-----------------------------------------------
E|-----------------------------------------------

Itni si hai dil ki aarzoo
E|-----------------------------------------------------
B|-----------------------------------------------------
G|--5--3--3-----5-----5--3--3---3h-5p3-----------------
D|--------------------------------------6--5---5/8-----
A|-----------------------------------------------------
E|-----------------------------------------------------

ohh hoo...
E|--------------------------------------------------------------8--------
B|--6-----8-----8--6--6-----8-----6--6--6-----8--6---8/11----11----------
G|-----------------------------------------------------------------10\8--
D|-----------------------------------------------------------------------
A|-----------------------------------------------------------------------
E|-----------------------------------------------------------------------
tabs and chords, guitar tabs, music transcription, music technology, deep learning, music information retrieval, transcribe into tabs & chords, chordify, music renditions, songsterr, reverbnation, tabulature, bollywood chords, ultimate guitar, yousician, guitar lessons, acoustic guitar, electric guitar, guitar tuner, 911 tabs