Guitar Tabs for Teri Mitti

(/) Slide Up  (\) Slide Down  (h) Hammer On  (p) Pull Off  (b) Bend (r) Release (v) Vibrato (x) Muted

Tabs & Chords
BPM : 117.0
Check Track 2 for Chord Positions 

    D#          D#                                                                               
E|-----------------------1--3--1--3--3-----3--1--1-----------------3--1--3-----1--3--3--3-----3--
B|--------------3--4--4-----------------------------4-----4--4-----------------------------------
G|--------3--------------------------------------------------------------------------------------
D|--1--------------------------------------------------------------------------------------------
A|-----------------------------------------------------------------------------------------------
E|-----------------------------------------------------------------------------------------------

                                                                                              
E|--3--1-----------------------------------------------------------------------------1--------
B|-----------4--4--4--4--4--4--4--2--2-----1--3--3--4-----3--4--4-----4--4-----4--4-----4--3--
G|--------------------------------------3-----------------------------------------------------
D|--------------------------------------------------------------------------------------------
A|--------------------------------------------------------------------------------------------
E|--------------------------------------------------------------------------------------------

       
E|-----
B|--2--
G|-----
D|-----
A|-----
E|-----

Guitar Tabs for Teri Mitti






    D#          D#                                                                               
E|--6-----------6--------------------------------------------------------------------------------
B|--8-----------8--------------------------------------------------------------------------------
G|--8-----------8--------------------------------------------------------------------------------
D|--8-----------8--------------------------------------------------------------------------------
A|--6-----------6--------------------------------------------------------------------------------
E|-----------------------------------------------------------------------------------------------

                                                                                              
E|--------------------------------------------------------------------------------------------
B|--------------------------------------------------------------------------------------------
G|--------------------------------------------------------------------------------------------
D|--------------------------------------------------------------------------------------------
A|--------------------------------------------------------------------------------------------
E|--------------------------------------------------------------------------------------------

       
E|-----
B|-----
G|-----
D|-----
A|-----
E|-----

tabs and chords, guitar tabs, music transcription, music technology, deep learning, music information retrieval, transcribe into tabs & chords, chordify, music renditions, songsterr, reverbnation, tabulature, bollywood chords, ultimate guitar, yousician, guitar lessons, acoustic guitar, electric guitar, guitar tuner, 911 tabs