Guitar Tabs for West African Guitar Lesson - Soukous Part 2 - Zoumana Diarra

(/) Slide Up  (\) Slide Down  (h) Hammer On  (p) Pull Off  (b) Bend (r) Release (v) Vibrato (x) Muted

Tabs & Chords
BPM : 110.0
Check Track 2 for Chord Positions 

    C                 G              C                    G              F           C        
E|--3--------------------------------------------------------------------------3--------------
B|-----1-----3-----------------------------1-----3--------------3--0-----------------1-----3--
G|-----------------------------------0--------------------------------------------------------
D|-----------------------0-----0--------------------------------------------------------------
A|--------------3-----------------------------------3--------0--------2-----------3-----------
E|--------------------3-----------------------------------3--------------1--1-----------------

    D     G                    F        C                 G                 F        C        
E|-----------------------------------3-----------------5--3-----0-----------------3--------0--
B|-----------------------0-----------------1-----3--------------------0-----------------1-----
G|-----------------0--------------------------------------------------------------------------
D|--------------------0-----------------------------------------------------------------------
A|--3-----0-----0-----------2-----------3-----------3--------------------2-----------3--------
E|-----------3-----------------3--------------------------------------------1-----------------

                G                 F           C     
E|-----------5--3-----0--------------------------0--
B|-----3--------------------0-----1-----------1-----
G|--------------------------------------0-----------
D|-----------------------------3--------------------
A|--------3-----------------------------------------
E|--------------------------------------------------

Guitar Tabs for West African Guitar Lesson - Soukous Part 2 - Zoumana Diarra






    C                 G              C                    G              F           C        
E|--0-----------------3--------------0--------------------3--------------1-----------0--------
B|--1-----------------3--------------1--------------------3--------------1-----------1--------
G|--0-----------------4--------------0--------------------4--------------2-----------0--------
D|--2-----------------5--------------2--------------------5--------------3-----------2--------
A|--3-----------------5--------------3--------------------5--------------3-----------3--------
E|--------------------3-----------------------------------3--------------1--------------------

    D     G                    F        C                 G                 F        C        
E|--2-----3--------------------1--------0-----------------3-----------------1--------0--------
B|--3-----3--------------------1--------1-----------------3-----------------1--------1--------
G|--2-----4--------------------2--------0-----------------4-----------------2--------0--------
D|--0-----5--------------------3--------2-----------------5-----------------3--------2--------
A|--------5--------------------3--------3-----------------5-----------------3--------3--------
E|--------3--------------------1--------------------------3-----------------1-----------------

                G                 F           C     
E|--------------3-----------------1-----------0-----
B|--------------3-----------------1-----------1-----
G|--------------4-----------------2-----------0-----
D|--------------5-----------------3-----------2-----
A|--------------5-----------------3-----------3-----
E|--------------3-----------------1-----------------

tabs and chords, guitar tabs, music transcription, music technology, deep learning, music information retrieval, transcribe into tabs & chords, chordify, music renditions, songsterr, reverbnation, tabulature, bollywood chords, ultimate guitar, yousician, guitar lessons, acoustic guitar, electric guitar, guitar tuner, 911 tabs