Guitar Tabs for West African Guitar Lesson - Soukous Part 1 - Zoumana Diarra

(/) Slide Up  (\) Slide Down  (h) Hammer On  (p) Pull Off  (b) Bend (r) Release (v) Vibrato (x) Muted

Tabs & Chords
BPM : 110.0
Check Track 2 for Chord Positions 

                                                                                              
E|--------------------------------------------------------------------------------------------
B|--------------------------------------------------------------------------------------------
G|--------0-----------------------------------------------------------------------------------
D|--2--3-----------0--------------------------------0-----------------------------------------
A|--------------1-----3-----2--3--2--0--1--0-----4--------3--3--2-----2--2--2-----1--2--2--2--
E|--------------------------------------------------------------------------------------------

                C                          G           C                    G           C        
E|-----------------------0-----------------------------0--------------7--------------------------
B|-----------------------------------------------1-----------1-----------------------------------
G|-----------------------------------------------------------------------------------------------
D|--0--0-----------2-----------------2-----0-----------------------------------------------------
A|--------------3-----3-----3-----3-----------------------------3--3--------------2-----------3--
E|--------3-----------------------------------------------------------------3--------3--1--------

                            G  
E|-----0--------------7--------
B|-----------1-----------------
G|-----------------------------
D|-----------------------------
A|--3-----------3--3-----0-----
E|--------------------------3--

Guitar Tabs for West African Guitar Lesson - Soukous Part 1 - Zoumana Diarra






                                                                                              
E|--------------------------------------------------------------------------------------------
B|--------------------------------------------------------------------------------------------
G|--------------------------------------------------------------------------------------------
D|--------------------------------------------------------------------------------------------
A|--------------------------------------------------------------------------------------------
E|--------------------------------------------------------------------------------------------

                C                          G           C                    G           C        
E|--------------0--------------------------3-----------0--------------------3-----------0--------
B|--------------1--------------------------3-----------1--------------------3-----------1--------
G|--------------0--------------------------4-----------0--------------------4-----------0--------
D|--------------2--------------------------5-----------2--------------------5-----------2--------
A|--------------3--------------------------5-----------3--------------------5-----------3--------
E|-----------------------------------------3--------------------------------3--------------------

                            G  
E|--------------------------3--
B|--------------------------3--
G|--------------------------4--
D|--------------------------5--
A|--------------------------5--
E|--------------------------3--

tabs and chords, guitar tabs, music transcription, music technology, deep learning, music information retrieval, transcribe into tabs & chords, chordify, music renditions, songsterr, reverbnation, tabulature, bollywood chords, ultimate guitar, yousician, guitar lessons, acoustic guitar, electric guitar, guitar tuner, 911 tabs