Guitar Tabs for Waada Karo - Kishore Kumar Tabs

(/) Slide Up  (\) Slide Down  (h) Hammer On  (p) Pull Off  (b) Bend (r) Release (v) Vibrato

Tabs for Song : Waada Karo

Waada Karo Nahin chhoroge tum mera sath
E|--------------------------------------------
B|-----------3-----1--------------------------
G|-----0--3-----3-----2--3--0--2--------2-----
D|--0-----------------------------3--3--------
A|--------------------------------------------
E|--------------------------------------------

Jaha tum ho waha mein bhi hu
E|-----------------------------------
B|-----------------------------------
G|-----------3--------------2--0-----
D|--3--1--1--------1--0--0-----------
A|-----------------------------------
E|-----------------------------------

chhuo nahi dekho zara peechhe rakho haath
E|--------------------------------------------
B|-----------3-----1--------------------------
G|-----0--3-----3-----2--3--0--2--------2-----
D|--0-----------------------------3--3--------
A|--------------------------------------------
E|--------------------------------------------

zawaan tum ho jawaan mein hu
E|-----------------------------------
B|-----------------------------------
G|-----------3--------------2--0-----
D|--3--1--1--------1--0--0-----------
A|-----------------------------------
E|-----------------------------------

suno meri jaan
E|--------------------
B|--------------------
G|--0--0--0-----0-----
D|-----------3--------
A|--------------------
E|--------------------

haske mujhe ye keh do
E|--------------------------
B|--------------------------
G|--0--0--2--2--2--0--2-----
D|--------------------------
A|--------------------------
E|--------------------------

bheege labon ki narmi mere liye hai
E|-----------------------------------------
B|-----------------------1--1--3--1--1-----
G|--2--2--3--3--3--2--3--------------------
D|-----------------------------------------
A|-----------------------------------------
E|-----------------------------------------

ho jawaan nazer ki masti mere liye hai
E|--------------------------------------------------
B|--4--3--1--1--1--1-----1--1--1--------------------
G|--------------------3-----------3--3--3--2--3-----
D|--------------------------------------------------
A|--------------------------------------------------
E|--------------------------------------------------

haseen ada ki shokhi mere liye hai
E|-----------------------------------------------
B|-----------------------------------------------
G|--3--3--2--2--2--0--2-----2---2h3--2--0--0-----
D|-----------------------------------------------
A|-----------------------------------------------
E|-----------------------------------------------

mere liye leke aayi ho yeh saugaat
E|--------------------------------------------
B|-----------3-----1--------------------------
G|-----0--3-----3-----2--3--0--2--------2-----
D|--0-----------------------------3--3--------
A|--------------------------------------------
E|--------------------------------------------

jahan tum ho wahan mein bhi hu
E|-----------------------------------
B|-----------------------------------
G|-----------3--------------2--0-----
D|--3--1--1--------1--0--0-----------
A|-----------------------------------
E|-----------------------------------


Add more lines by placing cursor below and adding notes
tabs and chords, guitar tabs, music transcription, music technology, deep learning, music information retrieval, transcribe into tabs & chords, chordify, music renditions, songsterr, reverbnation, tabulature, bollywood chords, ultimate guitar, yousician, guitar lessons, acoustic guitar, electric guitar, guitar tuner, 911 tabs