Guitar Tabs for Meri Bheegi Bheegi Si - Kishore Kumar

(/) Slide Up  (\) Slide Down  (h) Hammer On  (p) Pull Off  (b) Bend (r) Release (v) Vibrato

Tabs for Song : Meri Bheegi Bheegi Si Palko pe Rah Gaye

meri bheegi bheegi si palko pe rah gaye
E|-----------------------------------------------
B|--------11-11-11-11-11-------11----------------
G|--10-11----------------10-11----11-10-8--8-----
D|-----------------------------------------------
A|-----------------------------------------------
E|-----------------------------------------------

jese mere sapne bikhar ke
E|--------------------------------------
B|--------11----------------------10----
G|--10-11----11-10-8--8--8--10-11-------
D|--------------------------------------
A|--------------------------------------
E|--------------------------------------


jale mann tera bhi kisi ke milan ko
E|--8------8h9--8--------------------------------
B|-----11----------11-11-------9--9--------------
G|-----------------------10-11-------11-10-8-----
D|-----------------------------------------------
A|-----------------------------------------------
E|-----------------------------------------------

anamika tu bhi tarse
E|-----------------------------------------
B|--------11-------------------------------
G|--10-11----11-10-8-----8--8--10-11-10----
D|-----------------------------------------
A|-----------------------------------------
E|-----------------------------------------

tujhe bin jaane bin pehchane
E|--------8--9-----9--8-----------8--9-----9--8-----
B|--11-11-------11----------11-11-------11----------
G|--------------------------------------------------
D|--------------------------------------------------
A|--------------------------------------------------
E|--------------------------------------------------

mene hredaye se lagaya
E|--------8--9--11-9--8-----9--8-----
B|--11-11----------------11----------
G|-----------------------------------
D|-----------------------------------
A|-----------------------------------
E|-----------------------------------

per mere pyaar ke badle mein 
E|--13-8--8--8--8--8--11-11-8--8-----------
B|--------------------------------11-11----
G|-----------------------------------------
D|-----------------------------------------
A|-----------------------------------------
E|-----------------------------------------

tune mujhko ye din dikhlaya
E|--9--9--8-----------------8-----
B|-----------11-11-10-10-11-------
G|--------------------------------
D|--------------------------------
A|--------------------------------
E|--------------------------------

jese birha ki rut mene kaati,
E|--------------------------------------------
B|--------11-11-11-11-------9--9--7-----------
G|--10-11-------------10-11----------10-8-----
D|--------------------------------------------
A|--------------------------------------------
E|--------------------------------------------

tadap ke aanhe bhar bhar ke
E|--------------------------------------
B|--------11----------------------10----
G|--10-11----11-10-8--8--8--10-11-------
D|--------------------------------------
A|--------------------------------------
E|--------------------------------------
Add more lines by placing cursor below and adding notes
tabs and chords, guitar tabs, music transcription, music technology, deep learning, music information retrieval, transcribe into tabs & chords, chordify, music renditions, songsterr, reverbnation, tabulature, bollywood chords, ultimate guitar, yousician, guitar lessons, acoustic guitar, electric guitar, guitar tuner, 911 tabs