Guitar Tabs for Mere Mehboob Kishore Kumar

Mere Sanam Ke Dar Se Agar
E|--------------------9--------------------------------
B|---9/12-12-12-11-------12-12----11----11----9--9-----
G|-----------------------------------------------------
D|-----------------------------------------------------
A|-----------------------------------------------------
E|-----------------------------------------------------


Baad-E-Sabha Ho Tera Guzar 
E|--------------------9--------------------------------
B|---9/12-12-12-11-------12-12----11----11----9--9-----
G|-----------------------------------------------------
D|-----------------------------------------------------
A|-----------------------------------------------------
E|-----------------------------------------------------



Kehna Sitamgar Kuchh Hai Khabar
E|---7/9--9--9--9--9-----------------------------------
B|-----------------------12-12----11----11----9--9-----
G|-----------------------------------------------------
D|-----------------------------------------------------
A|-----------------------------------------------------
E|-----------------------------------------------------


Tera Naam Liya
E|--11-11----11/14----12----11----11h12p11----------
B|--------------------------------------------14----
G|--------------------------------------------------
D|--------------------------------------------------
A|--------------------------------------------------
E|--------------------------------------------------


Jab Tak Bhi Jiya Ae Shama Tera Parwana
E|--9--9---9/12----11----9---9h11p9-----------------11----9--11----------------------------
B|-----------------------------------12----12-12-------------------12----11----11/12-11----
G|-----------------------------------------------------------------------------------------
D|-----------------------------------------------------------------------------------------
A|-----------------------------------------------------------------------------------------
E|-----------------------------------------------------------------------------------------


Mere Mehboob Qayamat Hogi
E|-----------------11--9h11----9--------------------------------------
B|--9--9--11-12-------------------12-11-9-----------9--9------9h11----
G|--------------------------------------------11----------11----------
D|--------------------------------------------------------------------
A|--------------------------------------------------------------------
E|--------------------------------------------------------------------


Aaj Rusva Teri Galiyon
E|-----------------------------------------9--------
B|--9--11----12----11----9-----9--11-11-------------
G|--------------------------------------------11----
D|--------------------------------------------------
A|--------------------------------------------------
E|--------------------------------------------------


Mein Mohabbat Hogi
E|-----------------------------------------------------11--9h11----
B|-----------------9---------9/11----9-----9--11-12----------------
G|--9--11-9--8--------11-------------------------------------------
D|-----------------------------------------------------------------
A|-----------------------------------------------------------------
E|-----------------------------------------------------------------
tabs and chords, guitar tabs, music contests, music covers, songsterr, reverbnation, renditions, tabulature, bollywood chords, ultimate guitar, yousician, guitar lessons, torrins, fender, gibson, acoustic guitar, electric guitar, youtube covers, gootar, guitar tuner, A-Z tabs, 911 tabs