Guitar Tabs for Roop Tera Mastana - Kishore Kumar Tabs

(/) Slide Up  (\) Slide Down  (h) Hammer On  (p) Pull Off  (b) Bend (r) Release (v) Vibrato

Tabs for Song : Roop Tera Mastana

roop tera mastana
E|-----------------------------------
B|--1--1-----1-----------1-----------
G|--------3--------3--3-----3--0-----
D|-----------------------------------
A|-----------------------------------
E|-----------------------------------

pyaar mera deewana
E|-----------------------------------
B|--1--1-----1-----------1-----------
G|--------3--------3--3-----3--0-----
D|-----------------------------------
A|-----------------------------------
E|-----------------------------------

bhul koi humse na ho jaaye
E|--------------------------------------
B|--1--1-----1--1-----1--1--------------
G|--------3--------3--------3-----0-----
D|-----------------------------3--------
A|--------------------------------------
E|--------------------------------------

raat nasheeli mast sama hai
E|--------------------------------------
B|--------------------1-----------------
G|--0--3--0--3--3--------3--0--2--------
D|--------------------------------3-----
A|--------------------------------------
E|--------------------------------------

aaj nashe sara jaha hai
E|-----------------------------------
B|-----------------3--1-----1--1-----
G|--0--3--0--3--3--------3-----------
D|-----------------------------------
A|-----------------------------------
E|-----------------------------------

haan ye sharabi mausam behkaye
E|--0--0-----0--0-----0--0-----------------
B|--------3--------3--------3--1-----1-----
G|--------------------------------3--------
D|-----------------------------------------
A|-----------------------------------------
E|-----------------------------------------


Add more lines by placing cursor below and adding notes
tabs and chords, guitar tabs, music contests, music covers, songsterr, reverbnation, renditions, tabulature, bollywood chords, ultimate guitar, yousician, guitar lessons, torrins, fender, gibson, acoustic guitar, electric guitar, youtube covers, gootar, guitar tuner, A-Z tabs, 911 tabs