Guitar Tabs for Veer Jaara ~ Janam Dekh Lo

(/) Slide Up  (\) Slide Down  (h) Hammer On  (p) Pull Off  (b) Bend (r) Release (v) Vibrato (x) Muted

Tabs for Song : 
BPM : 200

Janam Dekh lo MitGayi Dooriyan 
E|-----------------------------------------------
B|-----------0--0--1-----0-----0--------------0--
G|-----2--------------------2-----------2--0-----
D|--2--------------------------------------------
A|-----------------------------------------------
E|-----------------------------------------------

Main Yahan Hoon Yahan Hoon Yahan Hoon Yahan 
E|---------------------------------------------------------
B|-----------------------------------------------------------
G|--------2-----0-----0-----------------------------2-- -----
D|--2--2-----------4--------3--2--3-----2- --------- ----
A|-------------------------------------------3---------------
E|-----------------------------------------------------------

Kesi Sarhaden Kesi Majbooriyan 
E|---------------------------------------------
B|-----------0--0--1-----0-----0-----------0-----
G|-----2--------------------2--------2--0--------
D|--2--------------------------------------------
A|---------------------------------------------
E|-----------------------------------------------

Main Yahan Hoon Yanhan Hoon Yahan Hoon Yahan
E|--------------------------------------------------------
B|-------------------------------------------------------
G|--------2-----0-----0--------------------------2--------
D|--2--2-----------4--------3--2--3-----2----------------
A|-----------------------------------------3--------------
E|--------------------------------------------------------

Tum Chupa Na Sakogi Main Woh Raaz Hoon
E|--------0-0-0-0-0---------1 0----------
B|--3--3-----------------3---------3--1----
G|-----------------------------------------
D|-----------------------------------------
A|-----------------------------------------
E|-----------------------------------------

Tum Bhoola Na Sakoge Woh Andaaz Hoon
---------------
E|-----------------0-0-----------------------
B|---1-0-3-3-3-------------0-1-3-1-0----
G|--------------------------------------2--- ----
D|-----------------------------------------------
A|-----------------------------------------------
E|-----------------------------------------------





tabs and chords, guitar tabs, music transcription, music technology, deep learning, music information retrieval, transcribe into tabs & chords, chordify, music renditions, songsterr, reverbnation, tabulature, bollywood chords, ultimate guitar, yousician, guitar lessons, acoustic guitar, electric guitar, guitar tuner, 911 tabs