Guitar Tabs for Janam janam

Tabs for Song : Janam Janam

janam janam janam sath chalna yunhi
E|-----------------------------------------------------
B|-----3-----3--2-----2--0-----0-----------------------
G|-----------------------------------------2-----------
D|--4-----------------------------4--5--5-----4--5-----
A|-----------------------------------------------------
E|-----------------------------------------------------

kasam tumhe kasam aake milna yahin
E|--------------------------------------------------
B|-----2-----2--0-----0-----------------------------
G|-----------------------2--------------------------
D|--2-----------------------5--2--4-----5--2--4-----
A|--------------------------------------------------
E|--------------------------------------------------

ek jaan hai bhale do badan ho juda
E|-----------------------------------------------
B|-----------------------------------------------
G|--------4-----2--2-----------------------------
D|--0--0--------------5--4--2--2--2--4--0--2-----
A|-----------------------------------------------
E|-----------------------------------------------

meri hoke humesha hi rahna 
E|-----------------------------------
B|-----1--2--------------------------
G|--3--------3-----3--1--3--4--3--4--
D|--------------4--------------------
A|-----------------------------------
E|-----------------------------------

kabhi na kahna alwida
E|--------------------------0-----0--2-----
B|-----2-----2-----3--2--3-----3-----------
G|--4-----4--------------------------------
D|-----------------------------------------
A|-----------------------------------------
E|-----------------------------------------

meri subh ho tumhi 
E|-----------------------------
B|--0--2--0--3-----2--2--0-----
G|-----------------------------
D|-----------------------------
A|-----------------------------
E|-----------------------------

aur tumhi shaam ho
E|--------------------------------
B|--------------------------------
G|--2--0--0--0-----0--2-----2-----
D|-----------------------4--------
A|--------------------------------
E|--------------------------------

tum dard ho tum hi araam ho
E|--------------------------------------------
B|--2--0-----0--------------------------------
G|--------------2--0--------------0-----------
D|--------------------4--2--4--4-----2--4-----
A|--------------------------------------------
E|--------------------------------------------

meri duaon se aati hai bas ye sadaa
E|-----------------------------------------------
B|-----------------------------------------------
G|-----------4--2--2-----------------------------
D|--4--2--0-----------5--4--2--2--2--4--0--2-----
A|-----------------------------------------------
E|-----------------------------------------------

meri hoke humesha hi rehna
E|-----------------------------------
B|-----1--2--------------------------
G|--3--------3-----3--1--3--4--3--4--
D|--------------4--------------------
A|-----------------------------------
E|-----------------------------------

kabhi na kahna alwida
E|--------------------------0-----0--2--
B|-----2-----2-----3--2--3-----3--------
G|--4-----4-----------------------------
D|--------------------------------------
A|--------------------------------------
E|--------------------------------------


tabs and chords, guitar tabs, music contests, music covers, songsterr, reverbnation, renditions, tabulature, bollywood chords, ultimate guitar, yousician, guitar lessons, torrins, fender, gibson, acoustic guitar, electric guitar, youtube covers, gootar, guitar tuner, A-Z tabs, 911 tabs