Guitar Tabs for Janam Janam (short)

(/) Slide Up  (\) Slide Down  (h) Hammer On  (p) Pull Off  (b) Bend (r) Release (v) Vibrato (x) Muted

Tabs for Song : janam janam(short)
BPM : 200

janam janam janam sath chalna yuin hi
E|--------------------------------------------------------
B|--------------------------------------------------------
G|-----7-----7--6-----6--4-----4--------------------------
D|--4-----------------------------7--4--5-----5--7--4--5--
A|--------------------------------------------------------
E|--------------------------------------------------------

kasam tumhe kasam aake milna yahin 


E|-----------------------------------------------------------
B|-----------------------------------------------------------
G|--------6-----6--4-----4-----------------------------------
D|--------------------------7-----7--5-----4-----4--5-----4--
A|-----7--------------------------------7--------------7-----
E|-----------------------------------------------------------

ek ja hain vale do badan ho juda
E|--------------------------------------------------------------------
B|--------------------------------------------------------------------
G|-----------------4-----4--------------------------------------------
D|-----4--------------------7-----7--5-----5--4--------------4--------
A|--------7--5-----------------------------------5--7-----7-----5--7--
E|--------------------------------------------------------------------
meri hoke hamesha hi  rehna kabhina kehna alvidaa
E|-----------------------------------------------------------------------
B|-----------------------------------------------------------------------
G|-----3--4--6--3-----------3--4--3--4--6--4--6--7--6--7--9--7--9---9/11-
D|-----------------4--4--6-----------------------------------------------
A|-----------------------------------------------------------------------
E|-----------------------------------------------------------------------
meri subha ho tumhi or tumhi shaam ho 
E|-----------------------------------------------------------------
B|-----------------------------------------------------------------
G|-----4--6--4--7-----7--6-----6--4-----4--------------------------
D|-----------------------------------------7--4--5-----5--7--4--5--
A|-----------------------------------------------------------------
E|-----------------------------------------------------------------
tum dard ho tumhi aaram ho
E|--------------------------------------------------------
B|--------------------------------------------------------
G|-----6-----6--4-----4-----------------------------------
D|-----------------------7-----7--5-----4-----4--5-----4--
A|-----------------------------------7--------------7-----
E|--------------------------------------------------------
meri duaao se aa ti hai bass ye sadaa
E|--------------------------------------------------------------------
B|--------------------------------------------------------------------
G|-----------------4-----4--------------------------------------------
D|-----4--------------------7-----7--5-----5--4--------------4--------
A|--------7--5-----------------------------------5--7-----7-----5--7--
E|--------------------------------------------------------------------
meri ho ke hamesha hi rahna kavi na kahna alvidaa

tabs and chords, guitar tabs, music transcription, music technology, deep learning, music information retrieval, transcribe into tabs & chords, chordify, music renditions, songsterr, reverbnation, tabulature, bollywood chords, ultimate guitar, yousician, guitar lessons, acoustic guitar, electric guitar, guitar tuner, 911 tabs