Guitar Tabs for Janam Dekh Lo - Veer Zaara Tabs

(/) Slide Up  (\) Slide Down  (h) Hammer On  (p) Pull Off  (b) Bend (r) Release (v) Vibrato

Tabs for Song : Janam Dekh Lo

Jaanam Dekh Lo Mit Gayi Dooriyan
E|--------------------------------------
B|-----5--7--7---7/8--7--5--7--5-----7--
G|--4-----------------------------7-----
D|--------------------------------------
A|--------------------------------------
E|--------------------------------------

Main Yahaan Hoon Yahaan Hoon Yahaan Hoon Yahaan
E|--------------------------------------
B|--------5-----------------------------
G|--4--4-----7--6--7--5--4--5--4-----4--
D|--------------------------------5-----
A|--------------------------------------
E|--------------------------------------

Kaisi Sarhadein, Kaisi Majbooriyan
E|-----------------------------------------
B|-----5--7--7---7/8--7--5--7--7--5-----7--
G|--4--------------------------------7-----
D|-----------------------------------------
A|-----------------------------------------
E|-----------------------------------------

Main Yahaan Hoon Yahaan Hoon Yahaan Hoon Yahaan
E|--------------------------------------
B|--------5--------------------5--------
G|--4--4-----7--6--7--5--4--5--------4--
D|--------------------------------5-----
A|--------------------------------------
E|--------------------------------------

Tum Chhupa Na Sakogi Main Woh Raaz Hoon
E|--5--5---5/7--7--7--7--7--7-----8--7--------
B|-----------------------------10-------10-8--
G|--------------------------------------------
D|--------------------------------------------
A|--------------------------------------------
E|--------------------------------------------

Tum Bhula Na Sakogi Woh Andaaz Hoon
E|-----------------------------------------
B|--8--7--10-10-10-10-10-10-7--10-8--7--5--
G|-----------------------------------------
D|-----------------------------------------
A|-----------------------------------------
E|-----------------------------------------

Music
E|--------7-----------------------7--------------
B|--7--8-----7--5-----5--7--7--8-----7--5-----5--
G|-----------------7-----------------------7-----
D|-----------------------------------------------
A|-----------------------------------------------
E|-----------------------------------------------

Gunjtaa Hoon Jo Dil Mein To Hairaan Ho Kyon
E|--5--5---5/7--7--7--7--7--7-----8--7--------
B|-----------------------------10-------10-8--
G|--------------------------------------------
D|--------------------------------------------
A|--------------------------------------------
E|--------------------------------------------

Main Tumhare Hi Dil Ki To Aawaz Hoon
E|-----------------------------------------
B|--8--7--10-10-10-10-10-10-7--10-8--7--5--
G|-----------------------------------------
D|-----------------------------------------
A|-----------------------------------------
E|-----------------------------------------

Again Repeat Part 1..
tabs and chords, guitar tabs, music transcription, music technology, deep learning, music information retrieval, transcribe into tabs & chords, chordify, music renditions, songsterr, reverbnation, tabulature, bollywood chords, ultimate guitar, yousician, guitar lessons, acoustic guitar, electric guitar, guitar tuner, 911 tabs