Guitar Tabs for Vaaste Tabs

(/) Slide Up  (\) Slide Down  (h) Hammer On  (p) Pull Off  (b) Bend (r) Release (v) Vibrato (x) Muted

Tabs for Song : 
BPM : 200
 

E|-----------------------------------------------------------------------------------------------------------------------
B|-----------------------------------------------------------------------------------------------------------------------
G|-----------------------------------------------------------------------------------------------------------------------
d|--3--3--3--3--3--5--5--5--5--5--7--7--7--7--7--5--5--5--5--5--3--3--3--3--3--5--5--5--5--5--7--7--7--7--7--8--8--8--8--
A|-----------------------------------------------------------------------------------------------------------------------
E|-----------------------------------------------------------------------------------------------------------------------


e|-----------------------------------------------------------------------------------------------------------------------------------------------
b|--11/13-11-10----13-11-10----13-11-10----------------------------13-11-10----6--8---8/11\10/11-10\8--6---8/10--8h10p8--6--6--------------------
g|-----------------------------------------------------12-10-------------------------------------------------------------------------------------
D|-----------------------------------------------------------------------------------------------------------------------------------------------
A|-----------------------------------------------------------------------------------------------------------------------------------------------
E|-----------------------------------------------------------------------------------------------------------------------------------------------


e|--------------------------------------------------------------------------------------------------------------------------------------------------------------
b|--10p8--10/11\10--8h10p8--6--6--6--6--6--10p8--10/11\10--8h10p8--6--6--6--6--6--10p8--10/11\10--8h10p8--6--6--6--6---8/13-13-13-13----------------------------
G|--------------------------------------------------------------------------------------------------------------------------------------------------------------
D|--------------------------------------------------------------------------------------------------------------------------------------------------------------
A|--------------------------------------------------------------------------------------------------------------------------------------------------------------
E|--------------------------------------------------------------------------------------------------------------------------------------------------------------




e|-----------------------------------------------------------------------------------------------------------------------------------------------
b|--11/13-11-10----13-11-10----13-11-10----------------------------13-11-10----6--8---8/11/10/11-10\8--6---8/10--8h10p8--6--6--------------------
g|--------------------------------------------------------12-10----------------------------------------------------------------------------------
D|-----------------------------------------------------------------------------------------------------------------------------------------------
A|-----------------------------------------------------------------------------------------------------------------------------------------------
E|-----------------------------------------------------------------------------------------------------------------------------------------------



e|--------------------------------------------------------------------------------------------------------------------------
b|--------------------------------------------------------------------------------------------------------------------------
g|--10/12-9--------------------------------------------10-10----10/12-9--------------------------------------10-10----------
d|--------------------------10----10-12-10-12----------------------------------------10----10-12-10-12----------------------
A|--------------------------------------------------------------------------------------------------------------------------
E|--------------------------------------------------------------------------------------------------------------------------




e|-----------------------------------------------------------------------------------------------------------------------------------------
b|-----------------------------------------------------------------------------------------------------------------------------------------
g|-----------10-9--10-10-12-12-10-9--------------------10-9--10-10-12-12-10-9-----------------------10-9--10-10-12-12-10-9-----------------
d|-----------------------------------------------------------------------------------------------------------------------------------------
a|--8--------------------------------------------8-----------------------------------------------8-----------------------------------------
E|-----------------------------------------------------------------------------------------------------------------------------------------



e|--------------------------------------------------------------------------------------------------------------------------------------------
b|--8--10-8--10-10-8--10-8--10-10-8--11-10-8-----------------------------------8--10-8--10-10-8--10-8--10-10-8--11-10-8--6--6--6--------------
g|-----------------------------------------------------------10-7--7--------------------------------------------------------------------------
D|--------------------------------------------------------------------------------------------------------------------------------------------
A|--------------------------------------------------------------------------------------------------------------------------------------------
E|--------------------------------------------------------------------------------------------------------------------------------------------


e|-----------------------------------------------------------------------------------------------------------------------------------------------------------------------------------
b|-----------------------------------------------------------------------------------------------------------------------------------------------------------------------------------
g|-----------------------10-10-10----------------------------10-10-10-9--9---7h-9p7--5-----------------------------10-10-10----------------------12/14-12-12----9--7--5--------------
d|--10/12-------------------------------10/12----------------------------------------------------10/12-------------------------------10-12-------------------------------------------
A|-----------------------------------------------------------------------------------------------------------------------------------------------------------------------------------
E|-----------------------------------------------------------------------------------------------------------------------------------------------------------------------------------




e|--------------------------------------------------------------------------------------------------------------------------------------------------------------
b|--10p8--10/11\10--8h10p8--6--6--6--6--6--10p8--10/11\10--8h10p8--6--6--6--6--6--10p8--10/11\10--8h10p8--6--6--6--6---8/13-13-13-13----------------------------
G|--------------------------------------------------------------------------------------------------------------------------------------------------------------
D|--------------------------------------------------------------------------------------------------------------------------------------------------------------
A|--------------------------------------------------------------------------------------------------------------------------------------------------------------
E|--------------------------------------------------------------------------------------------------------------------------------------------------------------




e|--------------------------------------------------------------------------------------------------------------------------------------------------
b|--11/13-11-10----13-11-10----13-11-10-------------------------------13-11-10----6--8---8/11/10/11-10\8--6---8/10--8h10p8--6--6--------------------
g|--------------------------------------------------------12-10-------------------------------------------------------------------------------------
D|--------------------------------------------------------------------------------------------------------------------------------------------------
A|--------------------------------------------------------------------------------------------------------------------------------------------------
E|--------------------------------------------------------------------------------------------------------------------------------------------------













Song lyrics here 
E|--
B|--
G|--
D|--
A|--
E|--

Song lyrics here 
E|--
B|--
G|--
D|--
A|--
E|--

Use manual mode to free up cursor. Paste any tab in acousterr tab maker and we'll play it !!!
tabs and chords, guitar tabs, music transcription, music technology, deep learning, music information retrieval, transcribe into tabs & chords, chordify, music renditions, songsterr, reverbnation, tabulature, bollywood chords, ultimate guitar, yousician, guitar lessons, acoustic guitar, electric guitar, guitar tuner, 911 tabs