Ukulele Tabs for Vaaste Ukulele

Intro
A|--------------------------------------------------------------------------------
E|--1-----1--1--1--1--0---1/3-----3--3--3--3------3/5-----5--5--5--5------5/6-----
C|--------------------------------------------5-----------------------7-----------
G|--------------------------------------------------------------------------------

Vaaste jaan bhi doon
Main gawaa imaan bhi doon
A|--------------------------------------------------------
E|--8--6--5-----8--6--5-----8--6---5h-6p5--------8--6--5--
C|------------------------------------------7p5-----------
G|--------------------------------------------------------

Kismaton ka likha mod doon
A|-----------------------------------------
E|-----------------------------------------
C|--5--7---7/10----9--7---7/9--7--5--5-----
G|-----------------------------------------

Badle mein main tere
Jo Khuda khud bhi de
A|--------------------------------------------------------
E|--8--6--5-----8--6--5-----8--6---5h-6p5--------8--6--5--
C|------------------------------------------7p5-----------
G|--------------------------------------------------------

Jannatein, sach kahoon chhod doon
A|-----------------------------------------
E|-----------------------------------------
C|--5--7---7/10----9--7---7/9--7--5--5-----
G|-----------------------------------------

Tumse zyada main na jaanu
Tumse khudko main pehchaanu
A|-----------------------------------------------------------------------
E|-----------------------------------------------------------------------
C|--7--9---7h-9p7--5--5--5--5--5--5--7--9---7h-9p7--5--5---5h-7p5--4--4--
G|-----------------------------------------------------------------------

Tumko bas main apna maanu mahiya
A|-----------------------------------------------
E|-----------------------------------------------
C|--7--9---7h-9p7--5--5--5--5---7/12-12-12-12----
G|-----------------------------------------------


Vaaste jaan bhi doon
Main gawaa imaan bhi doon
A|--------------------------------------------------------
E|--8--6--5-----8--6--5-----8--6---5h-6p5--------8--6--5--
C|------------------------------------------7p5-----------
G|--------------------------------------------------------

Kismaton ka likha mod doon
A|--------------------------------------------
E|--------------------------------------------
C|--5--7---7/10----9--7---7/9--7--5--5---5/7--
G|--------------------------------------------

Tere alawa koi bhi khwahish
Nahi hai baaki dil mein
A|-----------------------------------------------------------------
E|-----------------------------------------------------------------
C|--7--9--7--9--9--7--9--7--9--9--7--9--7---7h-9p7---5\2--2--2-----
G|-----------------------------------------------------------------

Kadam uthaaun jahaan bhi jaaun
Tujhi se jaaun mil main
A|--------------------------------------------------------------
E|--------------------------------------------------------------
C|--7--9--7--9--9--7--9--7--9--9--7--9--7---7h-9p7--5--5--5-----
G|--------------------------------------------------------------

Tere liye.. mera safar..
Tere bina.. main jaaun kidhar
A|--5--8--8--8-----5--8--8--8---5h-8p5--------5--8--8--8--------12-10-10----
E|--------------------------------------8-----------------8--10-------------
C|--------------------------------------------------------------------------
G|--------------------------------------------------------------------------

tabs and chords, guitar tabs, music transcription, music technology, deep learning, music information retrieval, transcribe into tabs & chords, chordify, music renditions, songsterr, reverbnation, tabulature, bollywood chords, ultimate guitar, yousician, guitar lessons, acoustic guitar, electric guitar, guitar tuner, 911 tabs